» » »

Ying Yang Twins, Halftime (Stand Up & Get Crunk) Tabs (ver.1)

Artists:  A B C D E F G H I J K L M N O P Q R S T U V W X Y Z # 

Halftime (Stand Up & Get Crunk) Tabs (ver.1)

Ying Yang Twins Tabs
 Rating:
4/5 (4 votes)
Halftime (Stand Up & Get Crunk) lessons Tabs too difficult? Try these video lessons and learn fast
1
                -------------------------------------------------------------------------------
-------------------------------------------------------------------------------

Tuning: Standard

This is a really easy song on guitar.  Play it with a swingin' triplet feel.

Intro/Main Riff

e|---------------------------------------------------------------------------|
B|---------------------------------------------------------------------------|
G|---------------------------------------------------------------------------|
D|------------5----------5--------5------------------------------------------|
A|-------7------------7--------7---------7--------------7--------------------|
E|---5---------------------------------------8----5-----------8--------------|

Another brass section plays this part when Kaine and D-Roc get their crunk on.

e|---------------------------------------------------------------------------|
B|---------------------------------------------------------------------------|
G|---------------------------------------------------------------------------|
D|----5------5------5-------5------5---------5-----5----5--------5----5------|
A|----------------------7------------------------------------7---------------|
E|---------------------------------------------------------------------------|

e|---------------------------------------------------------------------------|
B|----8-----8----8------8----8------------8--8-----8--------8--8-----8-------|
G|-------------------9--------------------------9-----------------9----------|
D|---------------------------------------------------------------------------|
A|---------------------------------------------------------------------------|
E|---------------------------------------------------------------------------|

("Stand up and get crunk!")

e|---------------------------------------------------------------------------|
B|----8~--------------10----8--------------8~-----------10----8--------------|
G|------------9~-----------------9~---------------9~---------------9~--------|
D|---------------------------------------------------------------------------|
A|---------------------------------------------------------------------------|
E|---------------------------------------------------------------------------|

And this little fill right before the verse...

e|---------------------------------------------------------------------------|
B|----8--8--9--10------------------------------------------------------------|
G|---------------------------------------------------------------------------|
D|---------------------------------------------------------------------------|
A|---------------------------------------------------------------------------|
E|---------------------------------------------------------------------------|

Verse ("Here we come to get you")

e|---------------------------------------------------------------------------|
B|---------------------------------------------------------------------------|
G|---------------------------------------------------------------------------|
D|---------------------------------------------------------------------------|
A|---------------------------------------------------------------------------|
E|----5---5--5------5---3---3------0--3------0--3----------------------------|

e|---------------------------------------------------------------------------|
B|---------------------------------------------------------------------------|
G|---------------------------------------------------------------------------|
D|---------------------------------------------------------------------------|
A|-----------------------------------------3-----3-----2---------------------|
E|----5---5---5------5---3---3-------3---------------------------------------|

And that should be it. Who Dat.

************************************

| /   slide up
| \   slide down
| h   hammer-on
| p   pull-off
| ~   vibrato
| +   harmonic
| x   Mute note
| b   Bend
| pb  Pre-bend
| br  Bend release
| pbr Pre-bend release
| brb Bend release bend

************************************
            
Submit corrections

comments powered by Disqus
↑ Back to top | Ying Yang Twins Tabs for Halftime (Stand Up & Get Crunk). Lyrics for acoustic guitar and electric guitar. 1 Tablatures and chords are parodies/interpretations of the original songs. You may use it for private study, scholarship, research or language learning purposes only