» » »

Yeti, Midnight Flight Bass tabs (ver.1)

Artists:  A B C D E F G H I J K L M N O P Q R S T U V W X Y Z # 

Midnight Flight Bass tabs (ver.1)

Yeti Tabs
 Rating:
4.2/5 (5 votes)
Midnight Flight lessons Tabs too difficult? Try these video lessons and learn fast
1
                
Thought it was about time someone tabbed something from Yeti! Awesome band,
awesome song. This is the complete tab... hope its not confusing - the trick
is to remember where the pauses are as they really convey that 'creepy' side
of the song.

Anyhoo, here she is:


Bass
     Q    Q    Q    Q       Q    E  E  E  E  Q       Q    Q    Q    Q     
G||----------------------|------------------------|----------------------|
D||----------------------|------------------------|----------------------|
A||----------------------|----------3-----1-------|----------------------|
E||--1---------4---------|--3----------------4----|--1---------4---------|


  Q    E  E  E  E  Q       Q    Q    Q    Q       Q    E  E  E  E  Q     
------------------------|----------------------|------------------------|
------------------------|----------------------|------------------------|
----------3-----1-------|----------------------|----------3-----1-------|
--3----------------4----|--1---------4---------|--3----------------4----|


  W                   E  Q    Q    Q       Q    Q    Q    Q     
-------------------|--------------------|----------------------|
--3----------------|---------------3----|----------------------|
-------------------|--3--1--------------|----------------------|
-------------------|----------1---------|--1---------4---------|


  Q    E  E  E  E  Q       Q    Q    Q    Q       Q    E  E  E  E  Q     
------------------------|----------------------|------------------------|
------------------------|----------------------|------------------------|
----------3-----1-------|----------------------|----------3-----1-------|
--3----------------4----|--1---------4---------|--3----------------4----|


  Q    Q    Q    Q       Q    E  E  E  E  Q       W                 
----------------------|------------------------|-------------------|
----------------------|------------------------|--3----------------|
----------------------|----------3-----1-------|-------------------|
--1---------4---------|--3----------------4----|-------------------|


  E  Q    Q    Q       Q    Q    Q    Q       Q    E  Q    Q    E   
--------------------|----------------------|-----------------------|
--------------------|--3---------6---------|--5--------------------|
--3--1--------------|----------------------|----------3----L-------|
----------1---------|----------------------|-----------------------|


  Q    Q    Q    Q       Q    E  E  S S E  E  E     Q    Q    Q    Q     
----------------------|--------------------------|----------------------|
--3---------6---------|--5-----------------------|--3---------6---------|
----------------------|----------3--L-L-5--3--L--|----------------------|
----------------------|--------------------------|----------------------|


  Q    E  Q    Q    E     Q    Q    Q    Q       Q    E  E  S S E  E  E   
-----------------------|----------------------|--------------------------|
--5--------------------|--3---------6---------|--5-----------------------|
----------3----L-------|----------------------|----------3--L-L-5--3--L--|
-----------------------|----------------------|--------------------------|


  Q    Q    Q    Q       Q    E  E  E  E  Q       Q    Q    Q    Q     
----------------------|------------------------|----------------------|
----------------------|------------------------|----------------------|
----------------------|----------3-----1-------|----------------------|
--1---------4---------|--3----------------4----|--1---------4---------|


  Q    E  E  E  E  Q       Q    Q    Q    Q       Q    Q    Q    Q     
------------------------|----------------------|----------------------|
------------------------|----------------------|----------------------|
----------3-----1-------|----------------------|----------------------|
--3----------------4----|--1-------------------|----------------------|


  Q    Q    Q    Q       Q    Q    Q    Q       Q    Q    Q    Q     
----------------------|----------------------|----------------------|
----------------------|----------------------|--3---------6---------|
----------------------|-----------------3----|----------------------|
----------------------|----------------------|----------------------|


  Q    E  Q    Q    E     Q    Q    Q    Q       Q    E  E  S S E  E  E   
-----------------------|----------------------|--------------------------|
--5--------------------|--3---------6---------|--5-----------------------|
----------3----L-------|----------------------|----------3--L-L-5--3--L--|
-----------------------|----------------------|--------------------------|


  Q    Q    Q    Q       Q    E  Q    Q    E     Q    Q    Q    Q     
----------------------|-----------------------|----------------------|
--3---------6---------|--5--------------------|--3---------6---------|
----------------------|----------3----L-------|----------------------|
----------------------|-----------------------|----------------------|


  Q    E  Q     E  E  E     W                   W                 
-------------------------|-------------------|-------------------|
--5----------------------|-------------------|-------------------|
----------3s----L--1--L--|-------------------|-------------------|
-------------------------|--1----------------|--L----------------|


  W                   W                   Q    Q    Q    Q     
-------------------|-------------------|----------------------|
-------------------|-------------------|----------------------|
-------------------|-------------------|----------------------|
--L----------------|--L----------------|--1---------4---------|


  Q    E  E  E  E  Q       Q    Q    Q    Q       Q    E  E  E  E  Q     
------------------------|----------------------|------------------------|
------------------------|----------------------|------------------------|
----------3-----1-------|----------------------|----------3-----1-------|
--3----------------4----|--1---------4---------|--3----------------4----|


  Q    Q    Q    Q       Q    E  E  E  E  Q       Q    Q    Q    Q     
----------------------|------------------------|----------------------|
----------------------|------------------------|----------------------|
----------------------|----------3-----1-------|----------------------|
--1---------4---------|--3----------------4----|--1---------4---------|


  Q    E  E  E  E  Q       Q    Q    Q    Q       Q    E  Q    Q    E   
------------------------|----------------------|-----------------------|
------------------------|--3---------6---------|--5--------------------|
----------3-----1-------|----------------------|----------3----L-------|
--3----------------4----|----------------------|-----------------------|


  Q    Q    Q    Q       Q    E  E  S S E  E  E                           
----------------------|--------------------------|-----|-----|-----|-----|
--3---------6---------|--5-----------------------|-----|-----|-----|-----|
----------------------|----------3--L-L-5--3--L--|-----|-----|-----|-----|
----------------------|--------------------------|-----|-----|-----|-----|


  Q    Q    Q    Q       Q    Q    Q    Q       Q    E  E  E  E  Q     
----------------------|----------------------|------------------------|
----------------------|----------------------|------------------------|
----------------------|----------------------|----------3-----1-------|
-----------------1----|--1---------4---------|--3----------------4----|


  Q    Q    Q    Q       Q    E  E  E  E  Q       Q    Q    Q    Q     
----------------------|------------------------|----------------------|
----------------------|------------------------|----------------------|
----------------------|----------3-----1-------|----------------------|
--1---------4---------|--3----------------4----|--1---------4---------|


  Q    E  E  E  E  Q       Q    Q    Q    Q       Q    E  E  E  E  Q     
------------------------|----------------------|------------------------|
------------------------|----------------------|------------------------|
----------3-----1-------|----------------------|----------3-----1-------|
--3----------------4----|--1---------4---------|--3----------------4----|


  Q    Q    Q    Q       Q    E  Q    Q    E     Q    Q    Q    Q     
----------------------|-----------------------|----------------------|
--3---------6---------|--5--------------------|--3---------6---------|
----------------------|----------3----L-------|----------------------|
----------------------|-----------------------|----------------------|


  Q    E  E  S S E  E  E     Q    Q    Q    Q       Q    E  Q    Q    E   
--------------------------|----------------------|-----------------------|
--5-----------------------|--3---------6---------|--5--------------------|
----------3--L-L-5--3--L--|----------------------|----------3----L-------|
--------------------------|----------------------|-----------------------|


  Q    Q    Q    Q       Q    E  E  S S E  E  E     Q    Q    Q    Q     
----------------------|--------------------------|----------------------|
--3---------6---------|--5-----------------------|--3---------6---------|
----------------------|----------3--L-L-5--3--L--|----------------------|
----------------------|--------------------------|----------------------|


  Q    E  Q    Q    E     Q    Q    Q    Q       Q    E  E  S S E  E  E   
-----------------------|----------------------|--------------------------|
--5--------------------|--3---------6---------|--5-----------------------|
----------3----L-------|----------------------|----------3--L-L-5--3--L--|
-----------------------|----------------------|--------------------------|


  Q    Q    Q    Q       Q    E  Q    Q    E     Q    Q    Q    Q     
----------------------|-----------------------|----------------------|
--3---------6---------|--5--------------------|--3---------6---------|
----------------------|----------3----L-------|----------------------|
----------------------|-----------------------|----------------------|


  Q    E  E  S S E  E  E     Q    Q    Q    Q       Q    E  E  E  E  Q     
--------------------------|----------------------|------------------------|
--5-----------------------|----------------------|------------------------|
----------3--L-L-5--3--L--|----------------------|----------3-----1-------|
--------------------------|--1---------4---------|--3----------------4----|


  Q    Q    Q    Q       Q    E  E  E  E  Q       Q    Q    Q    Q     
----------------------|------------------------|----------------------|
----------------------|------------------------|----------------------|
----------------------|----------3-----1-------|----------------------|
--1---------4---------|--3----------------4----|--1---------4---------|


  Q    E  E  E  E  Q       Q    Q    Q    Q       Q    E  E  E  E  Q     
------------------------|----------------------|------------------------|
------------------------|----------------------|------------------------|
----------3-----1-------|----------------------|----------3-----1-------|
--3----------------4----|--1---------4---------|--3----------------4----|


  Q    Q    Q    Q       Q    E  Q    Q    E     Q    Q    Q    Q     
----------------------|-----------------------|----------------------|
--3---------6---------|--5--------------------|--3---------6---------|
----------------------|----------3----L-------|----------------------|
----------------------|-----------------------|----------------------|


  Q    E  E  S S E  E  E     Q    Q    Q    Q       Q    E  Q    Q    E   
--------------------------|----------------------|-----------------------|
--5-----------------------|--3---------6---------|--5--------------------|
----------3--L-L-5--3--L--|----------------------|----------3----L-------|
--------------------------|----------------------|-----------------------|


  Q    Q    Q    Q       Q    E  E  S S E  E  E     W                  
----------------------|--------------------------|-------------------||
--3---------6---------|--5-----------------------|--3----------------||
----------------------|----------3--L-L-5--3--L--|-------------------||
----------------------|--------------------------|-------------------||




Duration Legend
---------------
W - whole
H - half
Q - quarter
E - 8th
S - 16th
T - 32nd
X - 64th
. - note dotted
|-n-|  - n-tuplets


Tablature Legend
----------------
L - tied note
x - dead note
g - grace note
(n) - ghost note
> - accentuded note
NH - natural harmonic
AH - artificial harmonic
TH - tapped harmonic
SH - semi harmonic
PH - pitch harmonic
h - hammer on
p - pull off
b - bend
br - bendRelease
pb - preBend
pbr - preBendRelease
brb - bendReleaseBend
\n/ - tremolo bar dip
\n - tremolo bar dive
-/n - tremolo bar Release up
/n\ - tremolo bar inverted dip
/n - tremolo bar return
-\n - tremolo bar Release down
S - shift slide
s - legato slide
/ -  slide into from below or out of upwards
\ -  slide into from above or out of downwards
~ - vibrato
W - wide vibrato
tr - trill
TP - tremolo picking
T - tapping
S - slap
P - pop
< - fade in
^ - brush up
v - brush down
            
Submit corrections

comments powered by Disqus
↑ Back to top | Yeti Bass for Midnight Flight. Lyrics for acoustic guitar and electric guitar. 1 Tablatures and chords are parodies/interpretations of the original songs. You may use it for private study, scholarship, research or language learning purposes only