» » »

Yesterdays Rising, You Tell Me Bass tabs (ver.1)

Artists:  A B C D E F G H I J K L M N O P Q R S T U V W X Y Z # 

You Tell Me Bass tabs (ver.1)

Yesterdays Rising Tabs
 Rating:
4.2/5 (5 votes)
You Tell Me lessons Tabs too difficult? Try these video lessons and learn fast
                -------------------------------------------------------------------------------
-------------------------------------------------------------------------------

Song Title: You Tell Me


Tuning: Drop D

gave me the exact notes to this song. All i had to do was place the notes to the song. So 
is the final product. Enjoy!

Intro [x2]
G|-------------------------------------|
D|----------------------------44-44-44-|
A|2-2-2-2-2-2-2-2-2--------------------|
D|------------------0-0-0-0-0----------|

Pre-Verse [x4]
G|---------------------------|
D|---------------------------|
A|222222222222---------------|
D|-------------000000000000--|

Verse 1 [x2]
G|---------------------------|
D|---------------------------|
A|222222222222---------------|
D|-------------000000000000--|

Post Verse 1 [x2]
G|------------------------------|
D|------------------------------|
A|2222-2-22-2222----------------|
D|---------------0000-0-00-0000-|

Chorus [x2]                                                          2nd time
G|------------------------------------------------------------------|[------]
D|------------------------------------------------------------------|[------]
A|2222-2-22-2222----------------------2222-2-22-2222----------------|[------]
D|---------------0000-0-00-0000-0-0-0----------------0000-0-00-0000-|[0~--0~]

Verse 2 Part 1 [x1]
G|----------------------------------------|
D|----------------------------------------|
A|2222-2222---2---2--2222-2222----2----2--|
D|----------00--00-------------00---00----|

Verse 2 Part 2 [x2]             2nd Time
G|-----------------------------|[-----]
D|-----------------------------|[-----]
A|-----------------------2---2-|[-----]
E|00000000000000000000-00--00--|[0-0-0]

Post Verse 2 [x2]
G|------------------------------|
D|------------------------------|
A|2222-2-22-2222----------------|
D|---------------0000-0-00-0000-|


Chorus [x2]
G|---------------------------------|
D|---------------------------------|
A|2222-2-22-2222-------------------|
D|---------------0000-0-00-0000000-|

Bridge [x4]
G|---------------------------------|
D|------------------------------4/-|
A|-------2-2-2-22222------2-222----|
D|0-0-0-0------------0-0-0---------|

Outro [x4]
G|----------------------------------|[---]
D|----------------------------------|[---]
A|2222222222222222------------------|[---]
D|-----------------0000000000000000-|[0~-]


| /  slide up
| \  slide down
| h  hammer-on
| p  pull-off
| ~  vibrato
| +  harmonic
| x  Mute note
===============================================================================
            
Submit corrections

comments powered by Disqus
↑ Back to top | Yesterdays Rising Bass for You Tell Me. Lyrics for acoustic guitar and electric guitar. Tablatures and chords are parodies/interpretations of the original songs. You may use it for private study, scholarship, research or language learning purposes only