» » »

Sidewalks Remnance Bass tabs (ver.1)

Artists:  A B C D E F G H I J K L M N O P Q R S T U V W X Y Z # 

Sidewalks Remnance Bass tabs (ver.1)

Yesterdays Rising
Rating:
0/5 (0 votes)

Hard to play? Try these video lessons and learn fast.
                The '\' and '/' are slides...there's alot of them in this song... I'm not sure if this whole thing is
correct. I just besed it on the rythm guitar and did everything else by ear


Tuning - Drop-D - (D# A D G) 


Kody, You will have to listen to the song and find out the beat/rythm yourself until I can show you....


  Bass      (start With Vocals)
|-------------------------------|--------------------------------|
|-------------------------------|--------------------------------|
|-------------------------------|--------------------------------|
|-4-4-4-4--4-4--4-4-4-4-4-4-4-4-|-4-4-4-4--4-4--4-4-4-4-4-4-4-4--|


|----------------------|----------------|
|----------------------|----------------|
|----------------------|----------------|
|-0-0/------7----------|----2\-----0----|


|-----------------------------|--------------------------------|
|-----------------------------|--------------------------------|
|-----------------------------|--------------------------------|
|-4-4-4-4-4-4-4-4-4-4-4-4-4-4-|-4-4-4-4-4-4-4-4-4-4-4-4-4-4----|


|-------------|--------------|
|-------------|--------------|
|-------------|--------------|
|-0--0/----7--|---2\----0----|


|------------------|----------------------|
|------------------|----------------------|
|------------------|----------------------|
|-4-4-4-4-4-4----4-|-4-4-4-4-4-4-2-0-0----|


|------------------------|--------------------------|
|------------------------|--------------------------|
|------------------------|--------------------------|
|-0-0-0-0-0-0-0-0-0-0-0--|-0-0-0-0-0-0-0-0-0-0-0----|


|----------------------------------------|
|----------------------------------------|
|----------------------------------------|
|-4-4-4-4-4-4----4-4-4-4-4-4-4--2-0-0----|


|------------------------|--------------------------|
|------------------------|--------------------------|
|------------------------|--------------------------|
|-0-0-0-0-0-0-0-0-0-0-0--|-0-0-0-0-0-0-0-0-0-0-0----|


|--------------------------|-----------------------------|
|--------------------------|-----------------------------|
|--------------------------|-----------------------------|
|-4-4--4-4--4-4--4-4--4--4-|-4-4--4-4--4-4--4-4--4--4----|


|--------------|--------------|
|--------------|--------------|
|--------------|--------------|
|-0/-----10----|-0/-----10----|


|---------------------|------------------------|
|---------------------|------------------------|
|---------------------|------------------------|
|-4-4-4-4-4-4-4-4-4-4-|-4-4-4-4-4-4-4-4-4-4----|


|---------------|---------------|
|---------------|---------------|
|---------------|---------------|
|-0/-----10-----|-0/------10----|


|---------------------------------|-----------------------------------|
|---------------------------------|-----------------------------------|
|---------------------------------|-----------------------------------|
|-0-0-0-0-0-0-0-0-0-0-0-0-0-0-0-0-|-2-2-2-2-2-2-2-2-2-2-2-2-2-2-2-2---|


|---------------------------------|-----------------------------------|
|---------------------------------|-----------------------------------|
|---------------------------------|-----------------------------------|
|-4-4-4-4-4-4-4-4-4-4-4-4-4-4-4-4-|-7-7-7-7-7-7-7-7-7-7-7-7-7-7-7-7---|


|---------------------------------|-----------------------------------|
|---------------------------------|-----------------------------------|
|---------------------------------|-----------------------------------|
|-0-0-0-0-0-0-0-0-0-0-0-0-0-0-0-0-|-2-2-2-2-2-2-2-2-2-2-2-2-2-2-2-2---|


|------------------|------|
|------------------|------|
|------------------|------|
|-4----------------|-7----|


     
|---------------------------------|-----------------------------------|
|---------------------------------|-----------------------------------|
|---------------------------------|-----------------------------------|
|-0-0-0-0-0-0-0-0-0-0-0-0-0-0-0-0-|-2-2-2-2-2-2-2-2-2-2-2-2-2-2-2-2---|


|---------------------------------|-----------------------------------|
|---------------------------------|-----------------------------------|
|---------------------------------|-----------------------------------|
|-4-4-4-4-4-4-4-4-4-4-4-4-4-4-4-4-|-7-7-7-7-7-7-7-7-7-7-7-7-7-7-7-7---|


|---------------------------------|-----------------------------------|
|---------------------------------|-----------------------------------|
|---------------------------------|-----------------------------------|
|-0-0-0-0-0-0-0-0-0-0-0-0-0-0-0-0-|-2-2-2-2-2-2-2-2-2-2-2-2-2-2-2-2---|


|---------------------------------|-----------------------------------|
|---------------------------------|-----------------------------------|
|---------------------------------|-----------------------------------|
|-4-4-4-4-4-4-4-4-4-4-4-4-4-4-4-4-|-7-7-7-7-7-7-7-7-7-7-7-7-7-7-7-7---|



|----------|------------|------------|------------|
|----------|------------|------------|------------|
|----------|------------|------------|------------|
|-0--------|-(0)--------|-(0)--------|--7\---0----|


|--------------------------------------------------------|
|--------------------------------------------------------|
|--------------------------------------------------------|
|-0-0-0-0-0-----0-0-0-0-0-----0-0-0-0-0-----0-0-0-0-0----|


|----------------------------------------------------|
|----------------------------------------------------|
|----------------------------------------------------|
|-4-4-4-4-4---4-4--4-4-4---4-4-4-4-4----4-4-4-4-4----|


|----------------------------------------------------|
|----------------------------------------------------|
|----------------------------------------------------|
|-0-0-0-0-0---0-0--0-0-0---0-0-0-0-0----0-0-0-0-0----|


|----------------------------------------------------|
|----------------------------------------------------|
|----------------------------------------------------|
|-4-4-4-4-4---4-4--4-4-4---4-4-4-4-4----4-4-4-4-4----|


|-----------------------------------------|
|-----------------------------------------|
|-----------------------------------------|
|-0-0-0-----0-0-0----0-0-0----0-0-0-------|


|-----------------------------------------|
|-----------------------------------------|
|-----------------------------------------|
|-4-4-4-----4-4-4----4-4-4----4-4-4-------|


The two guitars and the drums do the intro again....

|---------------------------------|-----------------------------------|
|---------------------------------|-----------------------------------|
|---------------------------------|-----------------------------------|
|-0-0-0-0-0-0-0-0-0-0-0-0-0-0-0-0-|-2-2-2-2-2-2-2-2-2-2-2-2-2-2-2-2---|


|---------------------------------|-----------------------------------|
|---------------------------------|-----------------------------------|
|---------------------------------|-----------------------------------|
|-4-4-4-4-4-4-4-4-4-4-4-4-4-4-4-4-|-7-7-7-7-7-7-7-7-7-7-7-7-7-7-7-7---|


|---------------------------------|-----------------------------------|
|---------------------------------|-----------------------------------|
|---------------------------------|-----------------------------------|
|-0-0-0-0-0-0-0-0-0-0-0-0-0-0-0-0-|-2-2-2-2-2-2-2-2-2-2-2-2-2-2-2-2---|


|---------------------------------|-----------------------------------|
|---------------------------------|-----------------------------------|
|---------------------------------|-----------------------------------|
|-4-4-4-4-4-4-4-4-4-4-4-4-4-4-4-4-|-7-7-7-7-7-7-7-7-7-7-7-7-7-7-7-7---|
            
Hard to play? Try these video lessons and learn fast. | Correct




comments powered by Disqus
↑ Back to top | Tablatures and chords are parodies/interpretations of the original songs. You may use it for private study, scholarship, research or language learning purposes only