» » »

Fall From Grace Tabs (ver.1)

Artists:  A B C D E F G H I J K L M N O P Q R S T U V W X Y Z # 

Fall From Grace Tabs (ver.1)

Yesterdays Rising
Rating:
4/5 (1 vote)

Hard to play? Try these video lessons and learn fast.
                Yesterdays Rising
by---tragedysucks


(_If u have n/e corrections please send them in right away
this is an awsome band that needs 2 have more tabs submmited
keep up the work_)


KEY

( ) -alot of strumming
... - palm mute


Intro- 5x

e----0------|
b---0-0-----|
g--5---5----|  4x
d-7-----7---|
a-----------|
d-----------|

e----0------|
b---0-0-----|
g--5---5----|   2x
d-3-----3---|
a-----------|
d-----------|

e----0---------------|
b---0-0--------------|
g--7---7--------2x---|  Repeat whole Intro 5x
d-5-----5------------|
a--------------------|
d--------------------|


Verse- 2x

e-----------------                     e--------------------|
b-----------------                     b--------------------|
g-----------------                     g--------------------|
d--(7)------------  Strum about 30x    d--(3)---------------|  Strum about 30x
a--(7)------------                     a--(3)---------------|
d--(7)------------                     d--(3)---------------|


Verse 2- 4x

e----------------------------------------------------------------------|
b----------0---------------0-------------------------------------------|
g---------5---------------5--------------------------------------------|
d--77-7--7-------77-7----7-------(3)-------------------------  Repeat--| 4x
a--77-7----------77-7------------(3)-----------------------------------|
d--77-7----------77-7------------(3)-----------------------------------|
   .. .          .. .


Chorus- 2x

e----------------------------------------------------------------------------------|
b----------------------------------------------------------------------------------|
g----------------------------------------------------------------------------------|
d--7777777---7777777---7777777--77777555553333333---3333333---3333333---3333355555-|  Repeat 2x
a--7777777---7777777---7777777--77777555553333333---3333333---3333333---3333355555-|
d--7777777---7777777---7777777--77777555553333333---3333333---3333333---3333355555-|
   .......   .......   .......  .................   .......   .......   ..........

Verse- 2x

e-----------------                     e--------------------|
b-----------------                     b--------------------|
g-----------------                     g--------------------|
d--(7)------------  Strum about 30x    d--(3)---------------|  Strum about 30x
a--(7)------------                     a--(3)---------------|
d--(7)------------                     d--(3)---------------|


Outro- 4x

e----------------------------------------------------------------------|
b-----------0--------------0-------------------------------------------|
g----------5--------------5--------------------------------------------|
d--77-7---7------77-7----7-------(3)-------------------------  Repeat--| 4x
a--77-7----------77-7------------(3)-----------------------------------|
d--77-7----------77-7------------(3)-----------------------------------|
   .. .          .. .


Intro- 5x
Verse- 2x
Verse 2- 2x
Chorus- 2x
Verse- 2x
outro- 4x

Lyrics- Yesterdays Rising- Fall From Grace

 crack the cover of any book, and begin to pathfind though-out, the life,
of the story ... and you will find, that its ... written by an author of
life. and i ant be there when you call me ... (can i move) forward not
behind? (can i sail) far across the seas? (will you let me) do as i
please? (why can i) let me go? also, am i right or ami wrong,
will you be there when i call you?crack the cover of any
book, and begin to pathfind through-out, the life,
of the story
            
Hard to play? Try these video lessons and learn fast. | Correct




comments powered by Disqus
↑ Back to top | Tablatures and chords are parodies/interpretations of the original songs. You may use it for private study, scholarship, research or language learning purposes only