» » »

Becoming One With Nature Bass tabs (ver.1)

Artists:  A B C D E F G H I J K L M N O P Q R S T U V W X Y Z # 

Becoming One With Nature Bass tabs (ver.1)

Yesterdays Rising
Rating:
5/5 (1 vote)

Hard to play? Try these video lessons and learn fast.
                -------------------------------------------------------------------------------
-------------------------------------------------------------------------------



Tuning: drop d

Intro. (wait for Richie to come in)                                                
g|---------------------------------------------|
d|---------------------------------------------|
a|---------------------------------------------| Repeat 2x
d|---7\3----10-----5757-----7\3-----10----3-5--|

Verse 1
g|---------------------------------------------|
d|---------------------------------------------|
a|---------------------------------------------| Repeat 2x
d|-7777777\---7777777\---7777777\--33333-55555-|

Bridge 
g|---------------------------------------------|
d|---------------------------------------------|
a|---------------------------------------------| Repeat 2x
d|-7~----------5~----------3~----------5~------|

Chorus
g|---------------------------------------------|
d|---------------------------------------------|
a|---------------------------------------------| Repeat 2x
d|-7(x12)------10{x12)------3(x12)-------5{x12)|

Repeat Intro                                        
g|---------------------------------------------|
d|---------------------------------------------|
a|---------------------------------------------| Repeat 2x
d|---7\3----10-----5757-----7\3-----10----3-5--|

Verse 2
g|---------------------------------------------|
d|---------------------------------------------|
a|---------------------------------------------| Repeat 2x
d|-7777777\---7777777\---7777777\--33333-55555-|

Chorus
g|---------------------------------------------|
d|---------------------------------------------|
a|---------------------------------------------| Repeat 2x
d|-7(x12)------10{x12)------3(x12)-------5{x12)|

Breakdown

g|---------------------------------------------|
d|---------------------------------------------|
a|---------------------------------------------| x1
d|-77-----------7577------------75333----------|

g|---------------------------------------------|
d|---------------------------------------------|
a|---------------------------------------------| x1
d|-77-----7577-------7577-------7533330~-------|

g|---------------------------------------------|
d|---------------------------------------------|
a|---------------------------------------------| x1
d|-77-----7577-------7577-------7533330--------|

g|---------------------------------------------|
d|---------------------------------------------|
a|---------------------------------------------| x1
d|-77-----7577-------7577-------7533330~-------|


Verse 3
g|---------------------------------------------|
d|---------------------------------------------|
a|---------------------------------------------| Repeat 2x
d|-77\-----7\-------77\------33333--55555------|

Bridge 
g|---------------------------------------------|
d|---------------------------------------------|
a|---------------------------------------------| Repeat 2x
d|-7~----------5~----------3~----------5~------|

Chorus
g|---------------------------------------------|
d|---------------------------------------------|
a|---------------------------------------------| Repeat 2x
d|-7(x12)------10{x12)------3(x12)-------5{x12)|

Outro                                                
g|---------------------------------------------|
d|---------------------------------------------|
a|---------------------------------------------| x1
d|---7\3----10-----5757-----7\3-----10----3-5\-|


| \  slide down
| ~  ring
===============================================================================
            
Hard to play? Try these video lessons and learn fast. | Correct




comments powered by Disqus
↑ Back to top | Tablatures and chords are parodies/interpretations of the original songs. You may use it for private study, scholarship, research or language learning purposes only