» » »

Yesterday And Today Tabs (ver.1)

Artists:  A B C D E F G H I J K L M N O P Q R S T U V W X Y Z # 

Yesterday And Today Tabs (ver.1)

Yes
Rating:
0/5 (0 votes)

Hard to play? Try these video lessons and learn fast.
                TUNING: standard

  Amaj7 
E||-0-----------------------------------------|------------------------------|
B||-2-----------------------------------------|------------------------------|
G||*1-----------------------------------------|------------------------------|
D||*2-----------------------------------------|------------------------------|
A||-0-----------------------------------------|------------------------------|
E||-x-----------------------------------------|------------------------------|
  why is there you when there are few people a-round making me feel

  Emaj
E-0-------------------------------------------|------------------------------|
B-0-------------------------------------------|------------------------------|
G-1-------------------------------------------|------------------------------|
D-2-------------------------------------------|------------------------------|
A-2-------------------------------------------|------------------------------|
E-0-------------------------------------------|------------------------------|
  good?

E-0-------------------------------------------|------------------------------|
B-2-------------------------------------------|------------------------------|
G-1-------------------------------------------|------------------------------|
D-2-------------------------------------------|------------------------------|
A-0-------------------------------------------|------------------------------|
E-x-------------------------------------------|------------------------------|
  why is there me when air is free, some I can better than I


E-0-------------------------------------------|------------------------------|
B-0-------------------------------------------|------------------------------|
G-1-------------------------------------------|------------------------------|
D-2-------------------------------------------|------------------------------|
A-2-------------------------------------------|------------------------------|
E-0-------------------------------------------|------------------------------|
  should?

E-0-------------------------------------------|------------------------------|
B-2-------------------------------------------|------------------------------|
G-1-------------------------------------------|------------------------------|
D-2-------------------------------------------|------------------------------|
A-0-------------------------------------------|------------------------------|
E-x-------------------------------------------|------------------------------|
  There's only us simply because thinking of   us makes us both hap-

                                                 Bmaj
E-0-------------------------------------------|-2---------------------------||
B-0-------------------------------------------|-4---------------------------||
G-1-------------------------------------------|-4---------------------------||
D-2-------------------------------------------|-4---------------------------||
A-2-------------------------------------------|-2---------------------------||
E-0-------------------------------------------|-x---------------------------||
  -py

  Gmaj                                         Bbmaj
E-3-------------------------------------------|-1----------------------------|
B-0-------------------------------------------|-3----------------------------|
G-0-------------------------------------------|-3----------------------------|
D-0-------------------------------------------|-3----------------------------|
A-x-------------------------------------------|-1----------------------------|
E-3-------------------------------------------|-x----------------------------|
  I think of                                   you ev'ry way

  Ebmaj                                        Bbmaj
E-3-------------------------------------------|-1----------------------------|
B-4-------------------------------------------|-3----------------------------|
G-3-------------------------------------------|-3----------------------------|
D-1-------------------------------------------|-3----------------------------|
A-x-------------------------------------------|-1----------------------------|
E-x-------------------------------------------|-x----------------------------|
  yesterday and to-                            -day

  G#maj                                        Bmaj
E-4-------------------------------------------|-2----------------------------|
B-4-------------------------------------------|-4----------------------------|
G-5-------------------------------------------|-4----------------------------|
D-6-------------------------------------------|-4----------------------------|
A-6-------------------------------------------|-2----------------------------|
E-4-------------------------------------------|-2----------------------------|
  I think of                                   things that we do

  Emaj                                             Bmaj
E-0-------------------------------------------|-2---------------------------||
B-0-------------------------------------------|-4---------------------------||
G-1-------------------------------------------|-4--------------------------*||
D-2-------------------------------------------|-4--------------------------*||
A-2-------------------------------------------|-2---------------------------||
E-0-------------------------------------------|-x---------------------------||
  all the way, ev'ry                            day.

  Amaj7                                         Emaj
E||-0-----------------------------------------|-0---------------------------||
B||-3-----------------------------------------|-0---------------------------||
G||*2-----------------------------------------|-1--------------------------*||
D||*3-----------------------------------------|-2--------------------------*||
A||-0-----------------------------------------|-2---------------------------||
E||-x-----------------------------------------|-0---------------------------||
  (repeat and fade)
            
Hard to play? Try these video lessons and learn fast. | Correct




comments powered by Disqus
↑ Back to top | Tablatures and chords are parodies/interpretations of the original songs. You may use it for private study, scholarship, research or language learning purposes only