>
 >
 >
Time And A Word 1

Time And A Word 1 Bass Tabs

Yes - Time And A Word 1 chords, tabs, tablatures, lyrics

Guitar lessons | Add/correct | Request | Top 50 tabs Artists:  A B C D E F G H I J K L M N O P Q R S T U V W X Y Z 0-9

Time And A Word 1 Bass Tabs – Yes

CD, Sheet music, Poster

Do you like Time And A Word 1? Share with your friends now
Bass Tabs
Time and a Word
                                      Yes

NOTE - on this song, like some tracks off of the "Time and a Word" album, the
       bass is tuned down a half step.


    Guitars           0:19                                                      
Gb--|-----------------||------------------------|------------------||-----------
Db--|-----------------||*-----------------------|-----------------*||-----------
Ab--|-----------------||*-----------------------|-----------------*||-----------
Eb--|-----------------||---3--------0--1--0--1--|--3---------------||--3--------
                                                                                

                                                                                
Gb-----------|-----------------------|--------------------------|---------------
Db-----------|-----------------------|--------------------------|---------------
Ab-----------|-----------------------|-----------x--8--8--7--5--|--7------------
Eb-----------|--3--------0--1--0--1--|--4--4--------------------|-----0--0------
                                                                                

                                                                                
Gb--------------------|-----------------------|-----------------------|---------
Db--------------------|-----------------------|--------4--5--4--------|---------
Ab-----------------2--|--3--3--3-----3--3--4--|--5-----------------5--|---------
Eb-----x--0--0--3-----|-----------------------|-----------------------|--4------
                                                                                

                                  0:58                                          
Gb--------------|-----------------|--------------------|-----------------|------
Db--------------|-----------------|--------------------|-----------------|------
Ab--------------|-----------------|--------------------|-----------------|------
Eb--------------|-----------------|--------0--1--0--1--|--3--------------|------
                                                                                

                                                                                
Gb----------------------------|-----------------|-----------------------|-------
Db------------/5-----3--------|-----------------|-----------------------|-------
Ab-------------------------5--|-----------------|-----------------------|-------
Eb--3-------------------------|--3--------------|--3--------0--1--0--3--|--4----
                                                                                

                                                                                
Gb-----------------------|--------------------------|--------------------|------
Db-----------------------|--------------------------|--------------------|------
Ab--------x--8--8--7--5--|--7--------------------2--|--3--3-----3--3--4--|------
Eb--4--------------------|-----0-----x--0--0--3-----|--------------------|------
                                                                                

                                                                                
Gb-----------------------|-----------------------|------------------------------
Db--------4--5--4--------|-----------------------|------------------------------
Ab--5-----------------5--|-----------------------|------------------------------
Eb-----------------------|--4-----4--4--4--4--4--|--0--0--0--0--0--0--0--0------
                                                                                

                               1:33                                             
Gb--|--------------------------|--------------4--------|--------------14--12----
Db--|--------------------------|-----------2-----5--2--|--7-----5--7------------
Ab--|--------------------7--5--|--3-----5--------------|------------------------
Eb--|--0--0--4--4--7--7--------|-----------------------|------------------------

                                                                               

                                                                                
Gb--------|-----------------------------5-----|--------5-----5--5---------------
Db--15\---|--3-----3--6--3--------3--5--------|--------------------2--2--2------
Ab--------|-----------------5-----------------|--3------------------------------
Eb--------|-----------------------------------|---------------------------------
                                                                                

                                                                                
Gb-----------|--------------4--------|--------------14--12--------|-------------
Db--3-----5--|-----------2-----5--2--|--7-----5--7----------15\---|--3-----3----
Ab-----------|--3-----5--------------|----------------------------|-------------
Eb-----------|-----------------------|----------------------------|-------------
                                                                                

                                                             2:03               
Gb--------------------5-----|-----------------|--------------|------------------
Db--6--3--------3--5--------|-----------------|--------------|------------------
Ab--------5-----------------|--3--------------|--------------|------------------
Eb--------------------------|-----------------|--------------|--------0--1------

                                                                               

                                                                                
Gb--------|-----------------|------------------------------|--------------------
Db--------|-----------------|-----------(3)h5-----3--------|--------------------
Ab--------|-----------------|---------------------------5--|--------------------
Eb--0--1--|--3--------------|--3---------------------------|--3-----------------

                                                                               

                                                                                
Gb--|-----------------------|--------------------------|------------------------
Db--|-----------------------|--------------------------|------------------------
Ab--|-----------------------|-----------x--8--8--7--5--|--7---------------------
Eb--|--3--------0--1--0--3--|--4--4--------------------|-----0--0-----x--0------
                                                                                

                                                                                
Gb-----------|--------------------|-----------------------|---------------------
Db-----------|--------------------|--------4--5--4--------|---------------------
Ab--------2--|--3--3-----3--3--4--|--5-----------------5--|---------------------
Eb--0--3-----|--------------------|-----------------------|--4--4-----4--4------
                                                                                

                                                                   2:38         
Gb-----------|--------------------------|--------------------------|------------
Db-----------|--------------------------|--------------------------|------------
Ab-----------|--------------------------|--------------------7--5--|--3---------
Eb--4--4--4--|--0--0--0--0--0--0--0--0--|--0--0--4--4--7--7--------|------------
                                                                                

                                                                                
Gb--------4--------|--------------14--12--------|-------------------------------
Db-----2-----5--2--|--7-----5--7----------15\---|--3-----3--6--3--------3--5----
Ab--5--------------|----------------------------|-----------------5-------------
Eb-----------------|----------------------------|-------------------------------
                                                                                

                                                                                
Gb--5-----|-----------5-----5--5--------------------|--------------4------------
Db--------|-----------------------2--2--2--3-----5--|-----------2-----5--2------
Ab--------|--3--3-----------------------------------|--3-----5------------------
Eb--------|-----------------------------------------|---------------------------
                                                                                

                                                                                
Gb--|--------------14--12--------|-----------------------------5-----|----------
Db--|--7-----5--7----------15\---|--3-----3--6--3--------3--5--------|----------
Ab--|----------------------------|-----------------5-----------------|--3--3----
Eb--|----------------------------|-----------------------------------|----------
                                                                                

                                                                                
Gb--5-----5--5--2--------------------|--------------4--------|------------------
Db--------------------5--3--2--------|-----------2-----5--2--|--7-----5--7------
Ab--------------------------------5--|--3-----5--------------|------------------
Eb-----------------------------------|-----------------------|------------------
                                                                                

                                                                                
Gb--14--12--------|-----------------------------5-----|--------5-----5--5--2----
Db----------15\---|--3-----3--6--3--------3--5--------|-------------------------
Ab----------------|-----------------5-----------------|--3--3-------------------
Eb----------------|-----------------------------------|-------------------------
                                                                                

                                                                                
Gb-----------------|--------------4--------|--------------14--12--------|-------
Db--5-----3--2-----|-----------2-----5--2--|--7-----5--7----------15\---|--3----
Ab--------------5--|--3-----5--------------|----------------------------|-------
Eb-----------------|-----------------------|----------------------------|-------
                                                                                

                                                                                
Gb-------------------------5-----|--(3)h5--5--5-----(3)h5--5--5-----5--5--2-----
Db-----3--6--3--x-----0h3--------|----------------------------------------------
Ab-------------------------------|----------------------------------------------
Eb-------------------------------|----------------------------------------------
                                                                                

                                                                                
Gb--2--------------|--------------4--------|--------------14--12--------|-------
Db-----5--5--2--2--|-----------2-----5--2--|--7-----5--7----------15\---|--3----
Ab-----------------|--3-----5--------------|----------------------------|-------
Eb-----------------|-----------------------|----------------------------|-------
                                                                                

                                                                                
Gb--------------------------5-----|-----------5-----------------------2--4------
Db-----3--6--3--------3--5--------|--------------------------2--3--5------------
Ab--------------5-----------------|--3--3--3-----0--2--3--5---------------------
Eb--------------------------------|---------------------------------------------
                                                                                

                                                                                
Gb--|--5\---------4--------|--------------14--12--------|-----------------5-----
Db--|----------2-----5--2--|--7-----5--7----------15\---|--3-----6-----3--------
Ab--|-------5--------------|----------------------------|-----------------------
Eb--|----------------------|----------------------------|-----------------------
                                                                                

                                                                                
Gb--|--------5-----5--5-----5--5-----5\||---------------4--------|--------------
Db--|----------------------------------||*-----------2-----5--2--|--7-----------
Ab--|--3--3----------------------------||*--3-----5--------------|--------7-----
Eb--|----------------------------------||------------------------|--------------
                                                                                

                                                                                
Gb----------------12h14--------|-----------------------------5-----|--5---------
Db---------12h14---------15\---|--3-----3--6--3--------3--5--------|------------
Ab--10/12----------------------|-----------------5-----------------|------------
Eb-----------------------------|-----------------------------------|------------
                                                                                


                                                  Fade Out                     
Gb--5--5--5-----5--5--5-----5--5--5--2---------||-----------------||------------
Db--------------------------------------5--2--*||-----------------||------------
Ab--------------------------------------------*||-----------------||------------
Eb---------------------------------------------||-----------------||------------
                                                                                



==                Created with a demo version of BUCKET O' TAB                ==
==                  tablature creation software for Windows                   ==





Comments


Popular Yes tabs & chords
Mind Drive 1 Bass Tabs
Roundabout 3 Bass Tabs
Siberian Khatru 3 Bass Tabs
Starship Trooper Bass Tabs
Changes Tabs
Roundabout Tabs
Run Through The Light Intro Tabs
Your Move Tabs
Yours Is No Disgrace 1 Tabs
Perpetual Change Ukulele


Song lyrics



↑ Back to top | Tablatures and chords are parodies/interpretations of the original songs. You may use it for private study, scholarship, research or language learning purposes only
© 2014 AZChords.com Contact us | Privacy policy | DMCA | Add/correct tabs | Request tabs | Top 50 tabs