» » »

Fish Tabs (ver.1)

Artists:  A B C D E F G H I J K L M N O P Q R S T U V W X Y Z # 

Fish Tabs (ver.1)

Yes
Rating:
4/5 (2 votes)

Tabs too difficult? Try these video lessons and learn fast.
                              The Fish (Schindleria Praematurus) (Chris Squire)
                                  YES

har=harmonic note

intro:
|-14p12----12-14p12----12-14p12----12-14p12----|
|-------16----------16----------16----------16-|
|----------------------------------------------|
|----------------------------------------------|
|----------------------------------------------|
|----------------------------------------------|

Chorus (This is really for bass, but can also be played on guitar):
|------------------------------------|
|------------------------------------|
|-------------12har------------19har-|
|---------12har------------19har-----|
|-----12har------------19har---------|
|-12har------------19har-------------|

Later, a second bass line does this:
|---------------------------------------------|
|---------------------------------------------|
|---------------------------------------------|
|------12har--12har-12har--------12har--12har-|
|------12har--12har-12har--------12har--12har-|
|-12har-------------------19har---------------|

Guitar 1:
|---------------------------------------------------------------|
|---------------------------------------------------------------|
|---------------------------------------------------------------|
|-12-----11-9--11---9--7-9----7-5-7---5-4-5---4-2----0--2--4--4-|
|-14-----12-10-12---10-9-10---9-7-9---7-5-7---5-4----2--4--5--5-|
|---------------------------------------------------------------|

Right after Guitar 1, Guitar 2 does this:
|---------------------------------------------|
|---------------------------------------------|
|---------------------------------------------|
|-12p9--9-9-9\7--7-7-7\5--5-5-5\4--4-4-4\2--0-|
|---------------------------------------------|
|---------------------------------------------|
            
Tabs too difficult? Try these video lessons and learn fast.




comments powered by Disqus
↑ Back to top | Tablatures and chords are parodies/interpretations of the original songs. You may use it for private study, scholarship, research or language learning purposes only