>
 >
 >
Soon

Soon Chords

Yes - Soon chords, tabs, tablatures, lyrics

Guitar lessons | Add/correct | Request | Top 50 tabs Artists:  A B C D E F G H I J K L M N O P Q R S T U V W X Y Z 0-9

Soon Chords – Yes

CD, Sheet music, Poster

Do you like Soon? Share with your friends now
ChordsTabsTabs v2Ukulele
Transcription : Rapha?l Chaize, student in Business School in Nice,

France

Note : This is the end part of a fabulous piece "the gates of delirium"

I think it was released as a single at the time. This is why this

beautiful song has its own autonomy.

The guitar is played with a bottle-neck, the long slides are symbolised

with a "/".

I have put the chords between brackets. these are simple chords, you can

hear them in your right ear while listening to the record. Sometimes the
bass is different from the fundamental note of the chord, I have put it
after a "/".

INTRO :

(Am)       (G)             (Am)                    (G)

--17-----15-12----13-12?---------17-20-19-17---15-----------------------

-----------------------15-----?20-------------------17----18-17---15----





(Dm)               (F)                  (C)

------------------------------------13---15--------20------24-----------

--15-17-15-13?10-------15-17-13-17--------------------------------------





(Am)        (G)               (Am)                    (G)

--17-----15-12----13-12?------------17-20-19-17---15--24----25-24---22--

-------------------------15-----?20-------------------------------------





(Dm)                (F)                  (C)

------------------------------------13---15-------12--------------------

--15-17-15-13?10-------15-17-13-17---------------------13---------------





(Am)Soon oh (G)soon the light

(Am)Pass within and soothe the (G)endless night

(Dm)And wait here for you

(F)Our reason to be (C)here

(Am)Soon oh (G)soon the time

(Am)All we move to gain will (G)reach and calm

(Dm)Our heart is open

(F)Our reason to be (C)here

(Dm)Long ago, set into (C)rhyme

INTERLUDE 1 :

(C)        (Am)              (Dm/F)                (G)

--------------------------------13-13-13-13-13 / 12--24-24-24-24-24 / 22

-17-17-17/15--13-13-13-13-13/12-----------------------------------------





(Am)Soon oh (G/B)soon the light

(Am/C)Ours to shape for all time, (G/D)ours the right

(Dm/F)The sun will lead us

(F/A)Our reason to be (C)here

INTERLUDE 2 :

(Am)      (G)             (Am)                   (G)

-17-----15-12----13-12?15-------17-20-19-17---15------------------------

----------------------------?20-------------------17----18-17---15------





(Dm)                (F)                 (Dm)

------------------------------------13 / 22--------------20------

--15-17-15-13?10-------15-17-13-17-------------------------------





(C)              (Dm)                 (C)          (G)             (Bb)

--17----18-17?15------20-22-25-24-22-20?17-18-17?15----15-17-15-13-10--

?----------------------------------------------------------------------





                   (Gm)           (F/A)          (Gm)

-15-17-13-17-18  /  27----------------------------------15-18-17-15-----

-------------------------------18---13---16?15?13----18--------------18-





(F)             (Cm)                (Eb)                (Am)

---23-22-20--------20-22-20-18 / 13----------------11----12---------

-15------------------------------------13-15-11-15------------------





(Am)Soon oh (G/B)soon the light

(Am/C)Ours to shape for all time, (G/D)ours the right

(Dm/F)The sun will lead us

(F/A)Our reason to be (C)here

INTERLUDE 3 :

(C)               (Am)               (F)               (G)


-17-17-17-17-17/15--13-13-13-13-13/12--10-10-10-10-10/8-----------------

----------------------------------------------------------9-9-9-9-9/7---




(C)             (Am/D)              (F)               (G)

24-24-24-24-24/22--20-20-20-20-20/19------------------------------------

-------------------------------------18-18-18-18-18/17-17-17-17-17-17/15





(C)             (Am/D)              (F)                  (Ab)

12-12-12-13/15-15--15-15-15-15-15/20--20-20-20-20-20-20/22----------------------

-----------------------------------------------------------18-18-18-18-18/16-16-




(Cm)               (Ab)                     (Cm)


-/6-6-6-6-6/4-4/8--18-18-18-18-18/16-16/20----18/20--16/18?15/16?13/15---8--





  (Ab)                  (Fm/C)

----------------------------16-15-16-----15/13----18---16-15?13------11-----

---18-18-18-18-18/16-16--------------13-------------------------------------





OUTRO :	(Eb/C) (B/C) (Cm) (Fm/C) (Ab/C) (Cm) (Fm/C) (Cm)

If you are into prog rock :

-please check out

       .YES "Close to the Edge"

       .GENESIS "Supper's ready"

-Coming soon

       .GENESIS "Anyway"

       .GENESIS "Home by the sea" corrected

       .KING CRIMSON "One time"

       .KING CRIMSON "Starless" corrected

       .ELP "Still... you turn me on"

-or you can send me Emails to chat about our favorite bands





Comments


Popular Yes tabs & chords
Yours Is No Disgrace 1 Bass Tabs
Perpetual Change Chords
Time And A Word 1 Chords
And You And I Part Iii The Preacher The Teacher Tabs
Close To The Edge Tabs
Starship Trooper 2 Tabs
If Only You Knew Ukulele
Leave It Ukulele
Perpetual Change Ukulele
Time And A Word Ukulele


Song lyrics



↑ Back to top | Tablatures and chords are parodies/interpretations of the original songs. You may use it for private study, scholarship, research or language learning purposes only
© 2014 AZChords.com Contact us | Privacy policy | DMCA | Add/correct tabs | Request tabs | Top 50 tabs