» » »

Yes, Roundabout Tabs (ver.2)

Artists:  A B C D E F G H I J K L M N O P Q R S T U V W X Y Z # 

Roundabout Tabs (ver.2)

Yes Tabs
 Rating:
4/5 (4 votes)
Roundabout lessons Tabs too difficult? Try these video lessons and learn fast
1
                Roundabout - Yes

Introduction to Roundabout (Anderson/Howe)

Note: Not written in proper timing
Standard Tuning (EADGBe)

The following notation is used:

<12> - Natural Harmonic
3h5  - Hammer on
5p3  - Pull off

e|---------<12>-|---------------------|---------<12>-|------------------|
B|-------<12>---|12-10h11p10-------10-|-------<12>---|12-10h11p10-------|
G|-----<12>-----|------------12-11----|-----<12>-----|------------12-11-|
D|--------------|---------------------|--------------|------------------|
A|--------------|---------------------|--------------|------------------|
E|<12>----------|---------------------|<12>----------|------------------|

e|---------------|---------<12>-|-----------------------|
B|---------------|-------<12>---|12-10h11p10-------9----|
G|---------------|-----<12>-----|------------12-11---11-|
D|9h10h12--------|--------------|-----------------------|
A|------9h10h12--|--------------|-----------------------|
E|--------------8|<12>----------|-----------------------|

e|2-3-2h3p2-0---|0-------|--------|---------|
B|------------3-|--3-1-0-|3-0-1---|0--------|
G|--------------|--------|------2-|--0-2----|
D|0-------------|--------|--------|------4-2|
A|--------------|3-------|2---0---|---------|
E|--------------|--------|--------|3---2---0|

That's the intro...GFPM printed a full tab not too long ago in a "Best Of"
issue (also includes an interview with Steve Howe)--if you want the rest
of the song this is the place to look.
            
Submit corrections

comments powered by Disqus
↑ Back to top | Yes Tabs for Roundabout. Lyrics for acoustic guitar and electric guitar. 1 Tablatures and chords are parodies/interpretations of the original songs. You may use it for private study, scholarship, research or language learning purposes only