» » »

Owner Of A Lonely Heart Tabs (ver.1)

Artists:  A B C D E F G H I J K L M N O P Q R S T U V W X Y Z # 

Owner Of A Lonely Heart Tabs (ver.1)

Yes
Rating:
0/5 (0 votes)

Hard to play? Try these video lessons and learn fast.
                OWNER OF A LONELY HEART
				YES


The riff i think you all know is:

---------------------|
---------------------|
---------------------|
--2---4-4--5--7------|
--2---4-4--5--7------|(slide down)
--0---2-2--3--5------|

add lots of distortion and stuff
i like to play with pick slides!(as if you care though, eh?)


i don't know the muted part for sure, but this is what i got...

-------------------|
  3---0--5-3-------|
-------------2-----|
---------------2-4-|
0---0--------------|
-------------------|

repeated over and over.


Also, i have a little bit from LONG DISTANCE RUNAROUND at the beginning.

-----------15-12-----------|
---------15-----12---------|
-------15---------12-------|
--14s15-------------12-14--|
---------------------------|
---------------------------|

       repeat with this instead -------------------------|
        of the 14       --17---16---14---12--------------|
                                ----15---15---15---13----|
                            -----------------------------|
                            -----------------------------|
                                -------------------------|

okay, so i admit the followup part is a little off, but hey, it still
sounds pretty nifty.


//////////////////////////////////////////////////////////
/ Jody O'Halloran        You ask em, "Where's my motor,  /
/                       "Well, it was eaten by snakes... /
/                       While your children is sleepin'  /
/                       Yer puppy is cr*ppin - Zappa ->Flakes
//////////////////////////////////////////////////////////
            
Hard to play? Try these video lessons and learn fast. | Correct




comments powered by Disqus
↑ Back to top | Tablatures and chords are parodies/interpretations of the original songs. You may use it for private study, scholarship, research or language learning purposes only