>
 >
 >
Mood For A Day 1

Mood For A Day 1 Guitar Tabs

Yes - Mood For A Day 1 chords, tabs, tablatures, lyrics

Guitar lessons | Add/correct | Request | Top 50 tabs Artists:  A B C D E F G H I J K L M N O P Q R S T U V W X Y Z 0-9

Mood For A Day 1 Guitar Tabs – Yes

CD, Sheet music, Poster

Do you like Mood For A Day 1? Share with your friends now
TabsTabs v2
Tuning:STANDARD

e|-3333-2----3--2---3--------------3-3------3-2----3-------------------3---|
B|-3333-2---33--2---3--b55-5-55----33332---3--2--03---b55-5-55-------23----|
G|-4444-3---4---3-4--4--33-3-33----44443--444-3--444----3-3-33-----34------|
D|-5555-4---5-554-55-5--44-4-44----55554--5---4--5-----4--4------45--------|
A|-5----4----5554-5-----------------5-54--5--54-----5----------------------|
E|-3----2-------2----------------------2------2-----3----------------------|

e|-2~~~~2-----------------------0--------------3---22--235320--------------|
B|-~3-30----235-2/3\20----320-23--3202-------23---33---------320-----------|
G|--------------------42-------------------34--------------------2---------|
D|----0----------------------------------45------4-------------------------|
A|-2~~~2----0---------------------2~~1----------2------0~~~~~~~~~----------|
E|------------------------3~~-2--------------------------------------------|

e|-----0-------------------------------------------------------------------|
B|32023--3202-------2302-0-------------------------------------------------|
G|----------------34----3--3-----------------------------------------------|
D|--------------45--------4-452/502-0--------------------------------------|
A|------2~~~1----------------------4-2412-1---12-1--12-1-~12-1~------------|
E|3~~2~~---------------------------------3-23~--3-23--3-23~-3-23-02320-2320|

e|-------------------------------------------------------------------------|
B|--------------------------32------320-----32----0------------------------|
G|----------------------------421------21-----4202-------------------------|
D|--------------------------0----4-------4------------07--------754-45-----|
A|-------------------------------------------------+12-------------7-------|
E|2320-023-0123-320230-23202X~------0-------3-----------------+7-----------|

e|-------------------------------------------------------------------------|
B|---------3--31-----------2h332----32------320-----3----------------------|
G|420------2----320---0----2~~~~42--2-42-------024----420----0-h2420-------|
D|---420---2-------0--0203-4~~~~~~4-4---54-5------004----42/4------h2420---|
A|--------2~--1--------304-5-~~~~~~-5------5------5---------------------2--|
E|-----------------------------------------3-----------------------------*7|

e|--------53531----------------------------------------0-------------------|
B|-31----------531--------------7910~~~--------5-320-23-320--2-------------|
G|---320----------320---------------13111197-67----------------------------|
D|------0------------320---------------------------------------------------|
A|-1----1----------------310----------------------------2~~~1--------------|
E|--------------------------32~---12~~~-10~~-5~~~3~~~2~~-------------------|

e|------------------------------0-------0-------0--------000000000000000000|
B|---------------------5-320-2h3--320-23------23--3202h3-555555555555555555|
G|-1113-141311-119---67-------------------764-----4~-2-----3-3--3--3-3--3-3|
D|----------------12----------------------4---2----------------------------|
A|9~------------------------------2---1------------------------------------|
E|------12~~~--10----5---3---2---------------------------------------------|

e|0------------7---1212----------------------------------------------------|
B|0----7910-910--10--------------------------------------------------------|
G|-------------------------------------------------------------------------|
D|-------------------------------------------------------------------------|
A|-5-----7~~---------------------------------------------------------------|
E|-6-----------10~~--9~----------------------------------------------------|

e|-109-141210--------------------55/22p0----5------------55/22p0-----------|
B|-----------151412-1412--12------------3-3--10/77p53-3---------3-3--------|
G|----------------------14--1412---------2--0~~~~----4-4---------2---------|
D|-------------------------------0~~~~~~~----------------0~~~~~~~~---------|
A|-----------11~~~~-12~~~~10~~~~-------------------------------------------|
E|-----10~~~~--------------------------------------------------------------|

e|-5--------------------------5------------2---22--222-2---------322~~~2~--|
B|--10/7p5------1010/77p5------9/75---3----2---22--222-2-------23-03-2-----|
G|--------7-7------------7-7-------7-4-4---33--333-33333-----34------------|
D|-5~~~~---9-9--0~~~~~~~~~7---5-----------4-44---4----44---45------0-------|
A|----------------------------------------4-44---4----44----------22-22----|
E|----------------------------------------2-22--------22-------------------|

e|---0----------0-----------3------2-235320------------0------------3------|
B|-23-320--32023-3202-----23----3233--------320---32023-3202------23-------|
G|-------2--------------34--------------------2-----------------34---------|
D|--------------------45-----3/4~~4~~-------------------------45-----------|
A|0--------------2~~1----------------0~~~~~~~~~---------2--1---------------|
E|---------3~~2~~---------------------------------3--2---------------------|

e|2---2-235~320--35753-------0-------245/42-20-----------0-----------------|
B|-33----------3------5-32023-3202------------3---5320-23-3202-------------|
G|-4-4------------------------------------------67-------------------------|
D|4-44------------------------------4~~2---0-------------------------------|
A|---2--0~~~~~~---------------2~~1~~----------------------2--1-------------|
E|----------------------3~~2~~------------------5--3---2-------------------|

e|-------------------------0-------245457510/1212--------109141210---------|
B|----79-1097-75----5-32023-3202-------------------17~~~~------------------|
G|--------------7-67-------------------------------14~~~~------------------|
D|---------------------------------4-2--0~~~~~~~~-+12h11~------------------|
A|-6/9---7~~~-5~~-----------2--1-------------------------------------------|
E|----------------5---3--2----------------------------------10~~~~---------|

e|-----------------------5\220--3-5-----------------------------5~5/2-2p0--|
B|-151412-1412---1210---------32----10/775------1010/775-----------------3-|
G|------------14-----12-----------0-------7-7-----------7-------0~---------|
D|-----------------------0~~~~------5~~~~--9-9--0~~~~------+12--5~---------|
A|-11~~~~-12~~~~-10~~~~----------------------------------+12---------------|
E|-------------------------------------------------------------------------|

e|------55\22p0-----5------------------------------------------------------|
B|-2-----------3-3---10\7--------------------------------------------------|
G|3-3-----------2---------7p6\4--------------------------------------------|
D|------0-----------0-----------975-420~~~~~~~~-0----12~~~~~~~~~~~~~~~~~~~-|
A|---------------------------------------------2--+12----------------------|
E|-------------------------------------------------------------------------|



| /  slide up
| \  slide down
| h  hammer-on
| p  pull-off
| ~  vibrato
| +  harmonic
| x  Mute note
===========================================================================





Comments


Popular Yes tabs & chords
Long Distance Runaround 2 Bass Tabs
Starship Trooper 1 Bass Tabs
Changes Chords
If Only You Knew Chords
Perpetual Change Chords
Long Distance Runaround 1 Tabs
Love Wll Find A Way Tabs
Owner Of A Lonely Heart 1 Tabs
Roundabout (Intro Ver 2) Tabs
If Only You Knew Ukulele


Song lyrics



↑ Back to top | Tablatures and chords are parodies/interpretations of the original songs. You may use it for private study, scholarship, research or language learning purposes only
© 2014 AZChords.com Contact us | Privacy policy | DMCA | Add/correct tabs | Request tabs | Top 50 tabs