» » »

Yes, Love Wll Find A Way Tabs (ver.1)

Artists:  A B C D E F G H I J K L M N O P Q R S T U V W X Y Z # 

Love Wll Find A Way Tabs (ver.1)

Yes Tabs
 Rating:
4/5 (5 votes)
Love Wll Find A Way lessons Tabs too difficult? Try these video lessons and learn fast
                #------------------------------------------------------------------------------##
Lines: 20

Love Will Find A Way -- Yes (Trevor Rabin)

Main riff:
----------------------------------------------------|
---------------------------------------------2------|
--------------0--------------------4-------4-2------|
------0-----0---0------------2---4-------4---2------|
--0-4-----4-------4-0--0-0-4---2-----0-------0------|
--------3------------------------------3------------|

Little fill played once during the intro (in-between riffs):
---------------------------|
--2-3-2--------------------|
--------4-2----------------|
------------4-2------------|
----------------0---- <<---| last note is first note of the next riff
---------------------------|

When going 0-4 on the A string, Rabin likes to slide up to the 4th
fret from the 3rd fret.
            
Submit corrections

comments powered by Disqus
↑ Back to top | Yes Tabs for Love Wll Find A Way. Lyrics for acoustic guitar and electric guitar. Tablatures and chords are parodies/interpretations of the original songs. You may use it for private study, scholarship, research or language learning purposes only