» » »

Time In Tabs (ver.1)

Artists:  A B C D E F G H I J K L M N O P Q R S T U V W X Y Z # 

Time In Tabs (ver.1)

Yeng Constantino
Rating:
0/5 (0 votes)
Tabs too difficult? Try these video lessons and learn fast.
                     Kung hanap nyu ung chords, hanapin nyu na lng dyan. Ung may pinakamataas na rating 
chords. Hehehe paki intindi na lng po ļ Noobie lng po me!

Tuning:EADGBe

Intro: Parang ganito ung 2nog ng piano ehh tas paulit ulit
e|------------------|
B|--------7---------|
G|--7-7h9---9-------|
D|------------------|
A|------------------|
E|------------------|
 Eto na ung gitara:
e|-------------------------------------------------------------------------|
B|--7s10---------------------------7s10------------------------------------|
G|-------7-9-11-----11p9--7-------------7-9-11-----11p9-7-----11-11-9-9----|
D|-------------------------------------------------------------------------|
A|-------------------------------------------------------------------------|
E|-------------------------------------------------------------------------|

Verse:           D         A          Bm         G       A
e|-------------------------------------------------------------------------|
B|-------------------------------------------------------------------------|
G|---------------7-7-------------------------------------------------------|
D|---------------7-7-------7-7--------9-9-------5-5------7-----------------|
A|---------------5-5-------7-7--------9-9-------5-5------7-----------------|
E|-------------------------5-5--------7-7-------3-3------5-----------------|

Refrain:        Em        G         Em    D    G
e|--------------0---------3---------0-----2----3---------------------------|
B|--------------0---------3---------0-----3----3---------------------------|
G|--------------0---------0---------0-----3----0---------------------------|
D|--------------2---------0---------2-----0----0---------------------------|
A|--------------2---------2---------2----------2---------------------------|
E|--------------0---------3---------0----------3---------------------------|

Chorus:         D         A         Bm        G
e|-------------------------------------------------------------------------|
B|-------------------------------------------------------------------------|
G|--------------7----------------------------------------------------------|
D|--------------7---------7---------9---------5----------------------------|
A|--------------5---------7---------9---------5----------------------------|
E|------------------------5---------7---------3----------------------------|

--------------------------------------------
Repeat intro, verse, refrain and chorus then
--------------------------------------------

Solo: ( ) means bend and ~ means vibrato
e|-------------------------------------------------------------------------|
B|---(14)-(15)-------------------~12--------------------------------------|
G|--------------12h14h16-12h14h16--------12p11-9-7-7h9-11------------------|
D|------------------------------------12------------------9p7--------------|
A|-------------------------------------------------------------------------|
E|-------------------------------------------------------------------------|
ung mabilis na part, medyo di sure kaya soweee
e|-------------------------------------------------------------------------|
B|--------------------------------10-12-10-7-------------------------------|
G|------------------------9-11-12------------------------------------------|
D|----------------9-11-12--------------------------------------------------|
A|--------9-10-12----------------------------------------------------------|
E|--10-12------------------------------------------------------------------|

Bridge: Male part (chords na ginamit)
e|-------------------------------------------------------------------------|
B|-------------------------------------------------------------------------|
G|----4-------7--------------4---------7-----------------------------------|
D|----4---7---7----5----7----4----5----7----7----5-------------------------|
A|----2---7---5----5----7----2----5----5----7----5-------------------------|
E|--------5--------3----5---------3---------5----3-------------------------|

Bridge: Yeng (chords na ginamit)
e|-------------------------------------------------------------------------|
B|-------------------------------------------------------------------------|
G|------------7--------------4---------------------------------------------|
D|------------7-------7------4---------------------------------------------|
A|------------5-------7------2---------------------------------------------|
E|--------------------5----------------------------------------------------|

| /  slide up
| \  slide down
| h  hammer-on
| p  pull-off
| ~ vibrato
| +  harmonic
| x  Mute note
| () Bend note
            
Tabs too difficult? Try these video lessons and learn fast.


comments powered by Disqus
↑ Back to top | Tablatures and chords are parodies/interpretations of the original songs. You may use it for private study, scholarship, research or language learning purposes only