» » »

Yeng Constantino, Hawak Kamay Tabs (ver.1)

Artists:  A B C D E F G H I J K L M N O P Q R S T U V W X Y Z # 

Hawak Kamay Tabs (ver.1)

Yeng Constantino Tabs
 Rating:
4/5 (15 votes)
Hawak Kamay lessons Tabs too difficult? Try these video lessons and learn fast
1
                

updated na po yan !!!!!!!   sensya na po kung medyo mali yung dati    sana maunawaan nyo
 tao lng!!


ganda poh  yang song na yan     astig  .......
madali lng poh toh.... just listen to the song ..   para  ma play nyo ng ayos ....
para sa mga comments at kung me mali  pm nyo lng akow   ym or friendster
add nyo ako sa friendster...   testi nrin huh

vote me ups     thnx ........    ROCK ON !!!


intro:
      G              Em              C9         D
e-------3-----|-------3-------|-2--3--0--|--------3---3-----|
B----------2--|-----------3---|-3--3-----|----3-------------|
G-----------0-|-------------0-|----------|------------------|
D-----0-------|-----2---2-----|----------|--0---0----0------|
A---2----2----|---2-----------|-3--3--3--|------------------|
E-3-----------|-o-------------|----------|------------------|

      G              Em              C9         D
e-------3-----|-------3-------|-2--3--0--|-----5----------|
B----------2--|-----------3---|-3--3-----|-----3----------|
G-----------0-|-------------0-|----------|-----2----------|
D-----0-------|-----2---2-----|----------|-----0----------|
A---2----2----|---2-----------|-3--3--3--|----------------|
E-3-----------|-o-------------|----------|----------------|

sa verse medyo ganun din eheh....

verse:

      G              Em              C9         D
e-------3------|-------3-------|-2--3--0--|--------3---3-----|
B-----------2--|-----------3---|-3--3-----|----3-------------|
D------------0-|-------------0-|----------|------------------|
G-----0--------|-----2---2-----|----------|--0---0----0------|
A---2-----2----|---2-----------|-3--3--3--|------------------|
E-3------------|-o-------------|----------|------------------|
       minsan na darama mo kay bigat ng problema
      G              Em              C9         D
e-------3------|-------3-------|-2--3--0--|--------3---3-----|
B-----------2--|-----------3---|-3--3-----|----3-------------|
D------------0-|-------------0-|----------|------------------|
G-----0--------|-----2---2-----|----------|--0---0----0------|
A---2-----2----|---2-----------|-3--3--3--|------------------|
E-3------------|-o-------------|----------|------------------|
   minsan na hihirapan ka at masasbing "dikona kaya "

           > " sana makuha nyo sa part na to ^_^ " <
     Am                Bm                 C9              D
e------------0---|----------2------|---------3------|-------------3-------|
B-------1------1-|------------3----|-----------3----|--------3-------3----|
G-----2----------|-----4---------4-|-----0-------0--|------2------------2-|
D---2------------|---4-------------|---2------------|---0-------0---------|
A-0--------0-----|-2------2---------|-3--------------|---------------------|
E----------------|-----------------|----------------|---------------------|
  tumingin ka lng sa langit baka sa kaling may ma sumpungan


     Am                Bm                 C9              D
e------------0---|----------3------|---------3------|-------------3-------|
B-------1------1-|------------3----|-----------3----|--------3-------3----|
G-----2----------|-----4---------4-|-----0-------0--|------2------------2-|
D---2------------|---4---4---------|---2------------|---0-------0---------|
A-0--------0-----|-2---------------|-3--------------|---------------------|
E----------------|-----------------|----------------|---------------------|
   di kaya ako'y tawagin  malalaman mong kahit kailan   " pede rin tong nasa
                                                         baba sa part na D "

                                                            D
 ito gamit ko sa part na yan                         |--------3---3--|
      waihih                                         |-------3-------|
                                                     |-----2---------| sa 
bago mag chorus       ito gamit ko                   |---0------0----|
                                                     |---------------|
                                                     |---------------|

chorus:
strum nyo nlng poh d2  ehhee.......

        G
Hawak-kamay
     Em             C9
Di kita iiwan sa paglakbay
  D
Dito sa mundong walang katiyakan
      G
Hawak-kamay
     Em             C9
Di kita iiwan sa paglalakbay
  D
Sa mundo ng kawala

Verse 2:

ganun din katulad ng verse 1


       G              Em              C9         D
e-------3------|-------3-------|-2--3--0--|--------3---3-----|
B-----------2--|-----------3---|-3--3-----|----3-------------|
D------------0-|-------------0-|----------|------------------|
G-----0--------|-----2---2-----|----------|--0---0----0------|
A---2-----2----|---2-----------|-3--3--3--|------------------|
E-3------------|-o-------------|----------|------------------|
      Ang mundo'y gumuho sa ilalim ng iyong mga paa

          G              Em              C9         D
e-------3------|-------3-------|-2--3--0--|--------3---3-----|
B-----------2--|-----------3---|-3--3-----|----3-------------|
D------------0-|-------------0-|----------|------------------|
G-----0--------|-----2---2-----|----------|--0---0----0------|
A---2-----2----|---2-----------|-3--3--3--|------------------|
E-3------------|-o-------------|----------|------------------|
      At ang agos ng problema'y tinatangay ka

     Am                Bm                 C9              D
e------------0---|----------2------|---------3------|-------------3-------|
B-------1------1-|------------3----|-----------3----|--------3-------3----|
G-----2----------|-----4---------4-|-----0-------0--|------2------------2-|
D---2------------|---4-------------|---2------------|---0-------0---------|
A-0--------0-----|-2-----2---------|-3--------------|---------------------|
E----------------|-----------------|----------------|---------------------|
  tumingin ka lng sa langit baka sa kaling may ma sumpungan

     Am                Bm                 C9              D
e------------0---|----------3------|---------3------|-------------3-------|
B-------1------1-|------------3----|-----------3----|--------3-------3----|
G-----2----------|-----4---------4-|-----0-------0--|------2------------2-|
D---2------------|---4---4---------|---2------------|---0-------0---------|
A-0--------0-----|-2---------------|-3--------------|---------------------|
E----------------|-----------------|----------------|---------------------|
   di kaya ako'y tawagin  malalaman mong kahit kailan

(repeat chorus: )

Bridge: strum lng din d2....
ehehehe

Em - G - C9 - D

Wag mong sabihin nagiisa ka

Laging isipin meron kang kasama

Narito ako oh,Narito ako...


(Repeat chorus )

Sa mundo ng kawalan

Hawak-kamay,hawak-kamay

Sa mundo ng kawalan

ENding ......


para toh kay ano .... yun na yun ....
ellow sa mga brkadako sa DLSL sina edison,jhay,bogs,josua,clack,diko,renz,faye,sheh,red,colt and dami nila eh

sorry sa mga dnabangit ehehhe  next tyme nlng ahahhaa






    __________   _________   _______    ||
   ||        || ||       || ||       || ||     //
   ||        || ||       || ||          ||    //      ______
   ||_______//  ||       || ||          ||___//      ||      |  ||\\   |
   ||      \\   ||       || ||          ||   \\      ||      |  || \\  |
   ||       \\  ||       || ||          ||    \\     ||      |  ||  \\ |
   ||        \\ ||_______|| ||_______|| ||     \\    ||______|  ||   \\|


ROCK ON!!    thnx
            
Submit corrections

comments powered by Disqus
↑ Back to top | Yeng Constantino Tabs for Hawak Kamay. Lyrics for acoustic guitar and electric guitar. 1 Tablatures and chords are parodies/interpretations of the original songs. You may use it for private study, scholarship, research or language learning purposes only