» » »

Yellowcard, Way Away Tabs (ver.4)

Artists:  A B C D E F G H I J K L M N O P Q R S T U V W X Y Z # 

Way Away Tabs (ver.4)

Yellowcard Tabs
 Rating:
4/5 (4 votes)
Way Away lessons Tabs too difficult? Try these video lessons and learn fast
1
                Yellowcard: Way Away - Rhythm Guitar (Ryan Key)

Tuning: Drop D (D,A,D,G,B,e)

 = You Figure Out Strumming
. = Palm Mute
x 
x = Kill Chord
x

Intro
1|--3-5-3-5-3-5-3--3-5-3--6-5-3-1-|R
2|---3-3-3-3-3------3-3-----------|E
3|----------------3---------------|P
4|-0------------------------------|E
5|--------------------------------|A
6|--------------------------------|T x2

Intro Part 2
1|--------------------|R
2|--------------------|E
3|--------------------|P
4|-0>-5-5-5-8>-3-3-3x-|E
5|-0>-5-5-5-8>-3-3-3x-|A
6|-0>-5-5-5-8>-3-3-3x-|T x2

Verse 1
1|---------|R
2|---------|E
3|---------|P
4|--3>-2>x-|E
5|--3>-3>x-|A
6|--3>-2>x-|T x2

Chorus
1|----------------------------|
2|----------------------------|
3|----------------------------|
4|-0>-3>-8>-7>-5>-0>-2>-5>-8>-|
5|-0>-3>-8>-8>-5>-0>-2>-5>-8>-|
6|-0>-3>-8>-7>-5>-0>-2>-5>-8>-|

Intro Part 2
1|--------------------|R
2|--------------------|E
3|--------------------|P
4|-0>-5-5-5-8>-3-3-3x-|E
5|-0>-5-5-5-8>-3-3-3x-|A
6|-0>-5-5-5-8>-3-3-3x-|T x2

Verse 2
1|----------|---------|R
2|----------|---------|E
3|----------|---------|P
4|----------|--3>-2>x-|E
5|-5>-3>-1>-|--3>-3>x-|A
6|----------|--3>-2>x-|T x2
   ........

Chorus 2
1|-P--|----------------------------|
2|-R--|----------------------------|
3|-E--|----------------------------|
4|-8>-|-0>-3>-8>-7>-5>-0>-2>-5>-8>-|
5|-8>-|-0>-3>-8>-8>-5>-0>-2>-5>-8>-|
6|-8>-|-0>-3>-8>-7>-5>-0>-2>-5>-8>-|

No Rhythm in Bridge

Breakdown
1|-------|R---|E|---------|
2|-------|E---|N|---------|
3|-------|P---|D|---------|
4|-0>-8>-|E---|-|-7>-0-0x-|
5|-0>-8>-|A---|O|-7>-0-0x-|
6|-0>-8>-|T-x4|N|-7>-0-0x-|

Outro
1|-------------------------|
2|-------------------------|
3|-------------------------|
4|-3>-8>-7>-5>-0>-2>-5>-8>-|
5|-3>-8>-8>-5>-0>-2>-5>-8>-|
6|-3>-8>-7>-5>-0>-2>-5>-8>-|

New track off ocean avenue. Great cd. Great song. Great band.


     x x
\,,/ ___ \,,/
       U
            
Submit corrections

comments powered by Disqus
↑ Back to top | Yellowcard Tabs for Way Away. Lyrics for acoustic guitar and electric guitar. 1 Tablatures and chords are parodies/interpretations of the original songs. You may use it for private study, scholarship, research or language learning purposes only