» » »

Two Weeks From Twenty Tabs (ver.5)

Artists:  A B C D E F G H I J K L M N O P Q R S T U V W X Y Z # 

Two Weeks From Twenty Tabs (ver.5)

Yellowcard
Rating:
0/5 (0 votes)

Hard to play? Try these video lessons and learn fast.
                (Intro)
I happen to manage to figure out the notes of this song by chance one day
so i thought i'd post a more accurate version of it here.


e|-----------------------------------------------------------------------|
B|------10-------10-------8-------8-------5-------5-------10-------10----|
G|------9--------9--------7-------7-------4-------4-------9--------9-----|
D|-----------------------------------------------------------------------|
A|--8-8----8-8-8----8\7-7---7-7-7---7\3-3---3-3-3---3/8-8----8-8-8----8--| 
E|-----------------------------------------------------------------------|

e|-----------------------------------------------------------------------|
B|------9-------9--------5~-----9~---------------------------------------|
G|------8-------8--------4~-----8~---------------------------------------|
D|-----------------------------------------------------------------------|
A|--8-8---8-8-8----8\4-4----7-7------------------------------------------|
E|-----------------------------------------------------------------------|

e|---------------------|
B|------10-------10----|
G|------9--------9-----| x4
D|---------------------|
A|--8-8----8-8-8----8--|
E|---------------------|
            
Hard to play? Try these video lessons and learn fast. | Correct




comments powered by Disqus
↑ Back to top | Tablatures and chords are parodies/interpretations of the original songs. You may use it for private study, scholarship, research or language learning purposes only