>
 >
Twenty Three Intro

Twenty Three Intro Guitar Tabs

Yellowcard - Twenty Three Intro chords, tabs, tablatures, lyrics

Guitar lessons | Add/correct | Request | Top 50 tabs Artists:  A B C D E F G H I J K L M N O P Q R S T U V W X Y Z 0-9

Twenty Three Intro Guitar Tabs – Yellowcard

CD, Sheet music, Poster

Do you like Twenty Three Intro? Share with your friends now
Tabs
                                    ---------------------------
                                     Twenty-Three ~ Yellowcard
                                    ---------------------------
                                            Ocean  Avenue
                                                Intro

(I know, pretty lame name)

Part: Intro

Tuning: Drop-D

Tempo: 196

Key: B

Timing: 4/4

Dynamic: f





  Guitar 1 (b = 1/2 Bend)
E|----------------|------7---------|----------------|----------------|
B|----------------|7-----------7---|4---------------|4-----4b----4---|
G|------------4-6-|----------------|------------4-6-|----------------|
D|----------------|----------------|----------------|----------------|
A|----------------|----------------|----------------|----------------|
D|----------------|----------------|----------------|----------------|
 |1 + 2 + 3 + 4 +  1 + 2 + 3 + 4 +  1 + 2 + 3 + 4 +  1 + 2 + 3 + 4 + |
 |                                                                   |
 |Guitar 2 (H = 11)                                                  |
E|----------------|----------------|----------------|----------------|
B|----------------|----------------|----------------|----------------|
G|----------------|----------------|----------------|----------------|
D|----------------|9-9---9-9-9-----|----------------|----------------|
A|----------------|7-7---7-7-7-----|9-9---9-9-9-----|H-H---H-H-H-----|
D|----------------|----------------|9-9---9-9-9-----|H-H---H-H-H-----|
  1 + 2 + 3 + 4 +  1 + 2 + 3 + 4 +  1 + 2 + 3 + 4 +  1 + 2 + 3 + 4 + 


E|----------------|----------------|----------------|----------------|
B|----------------|4-----4b----4---|----------------|----------------|
G|6-----4-----6---|----------------|6-----4-----6---|4---------------|
D|----------------|----------------|----------------|----------------|
A|----------------|----------------|----------------|----------------|
D|----------------|----------------|----------------|----------------|
 |1 + 2 + 3 + 4 +  1 + 2 + 3 + 4 +  1 + 2 + 3 + 4 +  1 + 2 + 3 + 4 + |
 |                                                                   |
E|----------------|----------------|----------------|----------------|
B|----------------|----------------|----------------|----------------|
G|----------------|----------------|----------------|4-4---4-4-4-----|
D|----------------|----------------|----------------|4-4---4-4-4-----|
A|6-6---6-7-6-----|7-7---7-7-7-----|2-2---2-2-2-----|X-X---X-X-X-----|
D|6-6---6-6-6-----|7-7---7-7-7-----|2-2---2-2-2-----|4-4---4-4-4-----|
  1 + 2 + 3 + 4 +  1 + 2 + 3 + 4 +  1 + 2 + 3 + 4 +  1 + 2 + 3 + 4 +


E|----------------|------7---------|----------------|----------------|
B|----------------|7-----------7---|4---------------|4-----4b----4---|
G|3-----------4-6-|----------------|------------4-6-|----------------|
D|4---------------|----------------|----------------|----------------|
A|----------------|----------------|----------------|----------------|
D|----------------|----------------|----------------|----------------|
 |1 + 2 + 3 + 4 +  1 + 2 + 3 + 4 +  1 + 2 + 3 + 4 +  1 + 2 + 3 + 4 + |
 |                                                                   |
E|----------------|----------------|----------------|----------------|
B|----------------|----------------|----------------|----------------|
G|3-3---3-3-3-----|----------------|----------------|----------------|
D|4-4---4-4-4-----|9-9---9-9-9-----|----------------|----------------|
A|X-X---X-X-X-----|7-7---7-7-7-----|9-9---9-9-9-----|H-H---H-H-H-----|
D|4-4---4-4-4-----|----------------|9-9---9-9-9-----|H-H---H-H-H-----|
 |1 + 2 + 3 + 4 +  1 + 2 + 3 + 4 +  1 + 2 + 3 + 4 +  1 + 2 + 3 + 4 + |
 |                                                                   |
 |(Guitar 3) (15 = N) (16 = M) (17 = P) (18 = R) (19 = S)            |
E|----------------|------S---------|----------------|----------------|
B|----------------|S-----------S---|M---------------|M-----Mb----M---|
G|------------M-R-|----------------|------------M-R-|----------------|
D|----------------|----------------|----------------|----------------|
A|----------------|----------------|----------------|----------------|
D|----------------|----------------|----------------|----------------|
  1 + 2 + 3 + 4 +  1 + 2 + 3 + 4 +  1 + 2 + 3 + 4 +  1 + 2 + 3 + 4 +


E|----------------|----------------|----------------|----------------|
B|----------------|4-----4b----4---|----------------|----------------|
G|6-----4-----6---|----------------|6-----4-----6---|4---------------|
D|----------------|----------------|----------------|----------------|
A|----------------|----------------|----------------|----------------|
D|----------------|----------------|----------------|----------------|
 |1 + 2 + 3 + 4 +  1 + 2 + 3 + 4 +  1 + 2 + 3 + 4 +  1 + 2 + 3 + 4 + |
 |                                                                   |
E|----------------|----------------|----------------|----------------|
B|----------------|----------------|----------------|----------------|
G|----------------|----------------|----------------|4-4---4-4-4-----|
D|----------------|----------------|----------------|4-4---4-4-4-----|
A|6-6---6-7-6-----|7-7---7-7-7-----|2-2---2-2-2-----|X-X---X-X-X-----|
D|6-6---6-6-6-----|7-7---7-7-7-----|2-2---2-2-2-----|4-4---4-4-4-----|
 |1 + 2 + 3 + 4 +  1 + 2 + 3 + 4 +  1 + 2 + 3 + 4 +  1 + 2 + 3 + 4 + |
 |                                                                   |
E|----------------|----------------|----------------|----------------|
B|----------------|M-----Mb----M---|----------------|----------------|
G|R-----M-----R---|----------------|R-----M-----R---|M---------------|
D|----------------|----------------|----------------|----------------|
A|----------------|----------------|----------------|----------------|
D|----------------|----------------|----------------|----------------|
  1 + 2 + 3 + 4 +  1 + 2 + 3 + 4 +  1 + 2 + 3 + 4 +  1 + 2 + 3 + 4 +


E|----------------|
B|----------------|
G|3---------------|
D|4---------------|
A|----------------|
D|----------------|
 |1 + 2 + 3 + 4 + |
 |                |
E|----------------|
B|----------------|
G|3-3---3-3-3-----|
D|4-4---4-4-4-----|
A|X-X---X-X-X-----|
D|4-4---4-4-4-----|
 |1 + 2 + 3 + 4 + |
 |                |
E|----------------|
B|----------------|
G|N---------------|
D|----------------|
A|----------------|
D|----------------|
  1 + 2 + 3 + 4 + 



If you haven't noticed, 
Guitar 3 is playing 
the same thing as Guitar 1 
only an octave higher 
(12 frets higher).





Comments


Popular Yellowcard tabs & chords
Life Of A Salesman 2 Bass Tabs
Only One Bass Tabs
Sure Shot Bass Tabs
For Petes Sake (Solo) Tabs
Light Up The Sky Tabs
Only One Tabs
Only One 4 Tabs
Three Flights Up Tabs
Holly Wood Died Ukulele
Paper Walls Ukulele


Song lyrics



↑ Back to top | Tablatures and chords are parodies/interpretations of the original songs. You may use it for private study, scholarship, research or language learning purposes only
© 2014 AZChords.com Contact us | Privacy policy | DMCA | Add/correct tabs | Request tabs | Top 50 tabs