» » »

Takedown Tabs (ver.3)

Artists:  A B C D E F G H I J K L M N O P Q R S T U V W X Y Z # 

Takedown Tabs (ver.3)

Yellowcard
Rating:
0/5 (0 votes)

Tabs too difficult? Try these video lessons and learn fast.
                ----------------------------------------------------------------------------
                       Yellowcard: The Takedown Solo

Tuning: Drop D: DADGBe

This is an excellent, solo, and is very fast.  Here is the way I play it.  I hope it'll help.

e|-9h10p9p7--------------------10-10/17-------------------------------------|
B|----------10----7-8-8/10-------------15-----------------------------------|
G|------------------------9~~------------14---------------------------------|
D|-----------------------------------------17-16----------------------------|
A|-----------------------------------------------17-------------------------|
D|--------------------------------------------------17-16-14-12~~\----------|

e|--------------------------------------------------------------------------|
B|---------------------------5p0-5p3-5p3-5/7~-------------------------------|
G|-7p6-6-7p6-7p6-6-7p6-7p6-6------------------------------------------------|
D|----7---------7---------7-------------------------------------------------|
A|--------------------------------------------------------------------------|
D|--------------------------------------------------------------------------|

e|----17p12-----17----------------------------------------------------------|
B|-15------15p14--15-----15p14----------------------------------------------|
G|------------------18p14-----14--14----------------------------------------|
D|------------------------------17--17p16--16~--/19-14~~--------------------|
A|---------------------------------------17---------------------------------|
D|--------------------------------------------------------------------------|

e|---------------------------------------------------------------------------|
B|----------------------------------------------------------------10~--------|
G|--------------------------------------------------------9-11-12------------|
D|-------------------------9-11-12~-------9-11-12-9-11-12--------------------|
A|-7~-7-9-10-9-10-12-10-12-------------12------------------------------------|
D|---------------------------------------------------------------------------|

e|-------------------------------------------------12h14p12----12-----------|
B|----------------12-------12-14-12-14----15-14-15----------15--------------|
G|-------11-12-14----12-14-------------14-----------------------------------|
D|-12-14--------------------------------------------------------------------|
A|--------------------------------------------------------------------------|
D|--------------------------------------------------------------------------|

e|-12h14p12----12-12h14p12----12--------------------------------------------|
B|----------15-------------15----14h15p14----14-15~~~-----------------------|
G|----------------------------------------14--------------------------------|
D|--------------------------------------------------------------------------|
A|--------------------------------------------------------------------------|
D|--------------------------------------------------------------------------|

The last part is a little blurry, but I think what I have is pretty close.
You don't really need to play in Drop D tuning for the solo- you can just move the notes 
the 6th string down a couple of frets.  However, I believe the rest of the song is in 
D, judging by the intro.  The way I have it tabbed out is for Drop D.

| /  slide up
| \  slide down
| h  hammer-on
| p  pull-off
| ~  vibrato
============================================================================
            
Tabs too difficult? Try these video lessons and learn fast.


comments powered by Disqus
↑ Back to top | Tablatures and chords are parodies/interpretations of the original songs. You may use it for private study, scholarship, research or language learning purposes only