» » »

Yellowcard, Sure Thing Falling Tabs (ver.2)

Artists:  A B C D E F G H I J K L M N O P Q R S T U V W X Y Z # 

Sure Thing Falling Tabs (ver.2)

Yellowcard Tabs
 Rating:
4/5 (4 votes)
Sure Thing Falling lessons Tabs too difficult? Try these video lessons and learn fast
                Sure Thing Falling
Yellowcard

Okay, this is an amazing song off of the new album "Lights and Sounds". With this
album they made the elec. violin sound alot like an elec. guitar. That makes it
very hard to figure out parts. Everything in this tab is as close to perfect as
can be. I wont say its perfect cuz there are always things in recordings that you
cant figure out. This is in a format for a band to play (without a violin, just 2
guitars) I've split it up into guitar 1 and 2 so whoever is playing guitar 1 sings,
cuz thats how my band does it. Anyway, Enjoy

                              Gtr. 1
Harmonic *
Palm Mute .
Slide /

 Intro:
D|-------------------------------|----------------------------------|
A|–------------------------------|----------------------------7*----|
F|-------------------------------|------------------------------7*--|
C|--------------------------0-2-4|---------------------------7*-----|
G|----0-5-4-0-4-2—--2-0—--0------|----0-5-4-0-4-2—--2-0—–-0---------|
C|0-5-------------5-----4--------|0-5-------------5-----4-----------|

D|-------------------------------|----|
A|–------------------------------|----|
F|-------------------------------|----|
C|--------------------------0-2-4|(X4)|
G|----0-5-4-0-4-2—--2-0—--0------|----|
C|0-5-------------5-----4--------|----|

Verse: Clean or Very low distortion
(comes in for the second half, all palm muted)
D|----------------------------------------------------------------|
A|–---------------------------------------------------------------|
F|----------------------------------------------------------------|
C|5------0------5------0------2-----5-----0------2-----5-----0~---|
G|5(X16)–0(X16)-5(X16)-0(X16)-2(X8)-5(X8)-0(X16)-2(X8)-5(X8)-0~---|
C|5------0------5------0------2-----5-----0------2-----5-----0~---|
  .      .      .      .      .     .     .      .     .     .

Chorus:
D|-----------------|-----|---------------------------------|----|
A|–----------------|-----|---------------------------------|----|
F|-----------------|-----|----------------5-5-555----------|----|
C|0--------5-------|(X2)-|9-9-9999-2—2-22-5-5-555-0-0-0000-|(X2)|
G|0-(X16)--5-(X16)-|-----|9-9-9999-2-2-22—3-3-333-0-0-0000-|----|
C|0--------5-------|-----|9–9-9999-2-2-22---------0-0-0000-|----|

Verse 2:Clean
D|---------------------|----|---------------------|----|-----------|
A|–--------------------|----|---------------------|----|-All-This--|
F|7-------14-----------|----|12-----16-----11-----|----|-Played----|
C|x-------x------------|(X2)|x-(X8)-x-(X8)-x-(X16)|(X2)|-Twice-----|
G|5(X 16)—12(X 16)-----|----|10-----14-----9------|2nd-|-----------|
C|---------------------|----|---------------------|Time|-----------|

Chorus: Same as first chorus
Bridge: (Gtr. 2 Only)
Break: Fade In On This Note (Distortion)
D|----
A|----
F|----
C|-7*-
G|----
C|----

D|-------------------------------|----|
A|–------------------------------|----|
F|-------------------------------|----|
C|--------------------------0-2-4|(X4)|
G|----0-5-4-0-4-2—--2-0—--0------|----|
C|0-5-------------5-----4--------|----|

D|----------------------------------------------------------------------------|
A|–---------------------------------------------------------------------------|
F|11-----7------14-----14-14-12-12-11-119/6-9-9-9-9-9-9-9/11-7-7-7-7-7-7-7-7--|
C|x-(X8)-x-(X8)-x-(X8)-x--x--x--x--x--x-x-x-x-x-x-x-x-x-x-x--x-x-x-x-x-x-x-x--|
G|9------5------12-----12-12-10-10-9--9-7/4-7-7-7-7-7-7-7/9–-5-5-5-5-5-5-5-5--|
C|----------------------------------------------------------------------------|

D|----------------|----|-------------------|
A|–---------------|----|-------------7*----|
F|11-----9------7-|----|---------------7*--|
C|x-(X8)-x-(X8)-x-|(X8)|-----------7*------|
G|9------7------5-|----|-----0-5-4---------|
C|----------------|----|-0-5---------------|

Last Chorus:
D|----------------------------------------------------------|
A|–---------------------------------------------------------|
F|----------------------------------------------------------|
C|0--------5--------0-------5-5-5-5-5-5-5-5-5-5-5-5-5-5-5-5-|
G|0-(X16)--5-(X16)–-0-(X16)-5-5-5-5-5-5-5-5-5-5-5-5-5-5-5-5-|
C|0--------5--------0-------5-5-5-5-5-5-5-5-5-5-5-5-5-5-5-5-|
                                                    . . . .

D|-----------------|----|---------------------------------|----|
A|–----------------|----|---------------------------------|----|
F|-----------------|----|----------------5-5-555----------|----|
C|0--------5-------|(X2)|9-9-9999-2—2-22-5-5-555-0-0-0000-|(X2)|
G|0-(X16)--5-(X16)-|----|9-9-9999-2-2-22—3-3-333-0-0-0000-|----|
C|0--------5-------|----|9–9-9999-2-2-22---------0-0-0000-|----|

                                  Gtr. 2

Harmonic *
Palm Mute .
Slide /

Intro:
D|-------------------|----|
A|-------------------|----|
F|-------------------|----|
C|5---------0--------|(X2)|
G|5–(X 16)--0-(X 16)-|----|
C|5---------0--------|----|

Verse: Clean
(this part has a tricky rhythm that is not easily tabbed - figure it out)
D|--------------------------------------------|(Part 2)---------------------|
A|–-------------------------------------------|-----------------------------|
F|--------------------------------------------|-----------------------------|
C|--------------------------------------------|-----------------------------|
G|–-4–5-0-----5—4-0--------4-5-0-------5-4-0--|----4-5-0--------5-4—–-4-5-0-|
C|5---------0------------5-----------0--------|--2-----------/5-----0–------|
Play this again, but do (Part 2) twice the second time going into chorus

Chorus:
D|--------------------------------|----|
A|–-------------------------------|----|
F|11-111111/12/11—--11111111/12/11|----|
C|x--x-x-x--x--x----x-x-x-x--x--x-|(X4)|
G|9--9-9-9-/10/9-—--9-9-9-9-/10/9-|----|
C|--------------------------------|----|

D|-----------------------------------------|
A|-----------------------------------------|
F|7-7-7-77x-9-9-9-99-9-9-9-99x-7-7-7-77----|
C|x-x-x-xxx-x-x-x-xx-x-x-x-xxx-x-x-x-xx----|
G|5-5-5-55x-7-7-7-77-7-7-7-77x-5-5-5-55----|
D|-----------------------------------------|

Verse 2: Same as Verse 1

Chorus: Same as first chorus

Bridge:
D|--------------------------------------------------------|----|
A|–-------------------------------------------------------|----|
F|--------------------------------------------------------|----|
C|9-9--9-9-9--9-5-5--5-5-5--5-0-0--0-0-0--0-7-7--7-7-7--7-|(X2)|
G|9-9--9-9-9--9-5-5--5-5-5--5-0-0--0-0-0--0-7-7--7-7-7--7-|----|
C|9-9--9-9-9--9-5-5--5-5-5--5-0-0--0-0-0--0-7-7--7-7-7--7-|----|

Break:
D|--------------------------------|----|
A|--------------------------------|----|
F|--------------------------------|----|
C|9-------5-------0-------7-------|(X2)|
G|9-(X 8)-5-(X 8)-0-(X 8)-7-(X 8)-|----|
C|9-------5-------0-------7-------|----|

Violin Solo Transcribed:
D|15-14------------------|------|15-14-------17----15-14–-|--------|
A|–-----15-------------15|------|------15-----------------|All-This|
F|---------14-11-12-14—--|-last-|---------14----14--------|Played–-|
C|-----------------------|-time-|-------------------------|Twice—--|
G|-----------------------|-play-|-------------------------|Then...-|
C|-----------------------|-this-|-------------------------|--------|

D|1515151515151414---|
A|–------------------|
F|-------------------|
C|-------------------|
G|-------------------|
C|-------------------|

Last Chorus:
D|--------------------------------|----|----------------------------|
A|–-------------------------------|----|----------------------------|
F|11-111111/12/11—--11111111/12/11|----|11-111111/12/11----111111---|
C|x--x-x-x--x--x----x-x-x-x--x--x-|(X3)|x--x-x-x--x--x-----x-x-x----|
G|9--9-9-9-/10/9-—--9-9-9-9-/10/9-|Then|9–-9-9-9-/10/9-----9-9-9----|
C|--------------------------------|----|----------------------------|

D|17-|-----|----------------|----|---------------|
A|15-|-----|----------------|----|---------------|
F|14-|(X64)|----7-7---------|----|---------------|
C|12-|-----|--------5-5-4-4-|(X7)|0--0-0~--------|
G|---|-----|5-5-------------|----|0--0-0~--------|
C|---|-----|----------------|----|0--0-0~--------|
(This last part i know isn't exactly right, but they have the violin sounding alot
like an elec. guitar so its hard to tell whats doing what. this sounds good and gets
the idea of what they are doing)

Enjoy
            
Submit corrections

comments powered by Disqus
↑ Back to top | Yellowcard Tabs for Sure Thing Falling. Lyrics for acoustic guitar and electric guitar. Tablatures and chords are parodies/interpretations of the original songs. You may use it for private study, scholarship, research or language learning purposes only