» » »

Yellowcard, Space Travel Tabs (ver.5)

Artists:  A B C D E F G H I J K L M N O P Q R S T U V W X Y Z # 

Space Travel Tabs (ver.5)

Yellowcard Tabs
 Rating:
4/5 (4 votes)
Space Travel lessons Tabs too difficult? Try these video lessons and learn fast
1
                (Intro)
E--2---2---0--0---3--2---0----3--2----3------------]
B----3---3---3--3------3------------0--------------]
G--------------------------------------------------]
D--------------------------------------------------]
A--------------------------------------------------]
E--------------------------------------------------]



E--2-----2-----0---0---0---0------0----0-----------]
B-----3-----3----3---3----3---3--2----2------------]
G--------------------------------------------------]
D--------------------------------------------------]
A--------------------------------------------------]
E--------------------------------------------------]
            
Submit corrections

comments powered by Disqus
↑ Back to top | Yellowcard Tabs for Space Travel. Lyrics for acoustic guitar and electric guitar. 1 Tablatures and chords are parodies/interpretations of the original songs. You may use it for private study, scholarship, research or language learning purposes only