» » »

Yellowcard, Space Travel Tabs (ver.4)

Artists:  A B C D E F G H I J K L M N O P Q R S T U V W X Y Z # 

Space Travel Tabs (ver.4)

Yellowcard Tabs
Rating:
0/5 (0 votes)
Space Travel lessons Tabs too difficult? Try these video lessons and learn fast
                (Intro)
this is simlpe........And it sounds right to me so.......


E--------------------------------------------------]
B--------------------------------------------------]
G-12---12---10---10---13--12----12--13--12---12----]
D---13---13---13---13------------------------------]
A--------------------------------------------------]
E--------------------------------------------------]



E--------------------------------------------------]
B--------------------------------------------------]
G-12--12--10--10---8---8--10--10-------12----------]
D---13--13--13--13--13--13--13--13-----------------]
A--------------------------------------------------]
E--------------------------------------------------]

There you go..........now go tab the rest
            

comments powered by Disqus
↑ Back to top | Yellowcard Tabs for Space Travel. Lyrics for acoustic guitar and electric guitar. Tablatures and chords are parodies/interpretations of the original songs. You may use it for private study, scholarship, research or language learning purposes only