>
 >
Space Travel 1

Space Travel 1 Guitar Tabs

Yellowcard - Space Travel 1 chords, tabs, tablatures, lyrics

Guitar lessons | Add/correct | Request | Top 50 tabs Artists:  A B C D E F G H I J K L M N O P Q R S T U V W X Y Z 0-9

Space Travel 1 Guitar Tabs – Yellowcard

CD, Sheet music, Poster

Do you like Space Travel 1? Share with your friends now
Bass TabsChordsTabsTabs v2Tabs v3Ukulele
Title  Space Travel
Artist- Yellowcard
Album  Lights and Sounds


Tuning: Drop D
Guitar 1  Slight Distortion
Guitar 2  Slight Distortion

 _________________
|Intro (0:00-0:11)|
|_________________|

Guitar 2
e| |---------|
B| |---------|
G| |---------|
D| |---------|
A| |---------|
D| |-9-9-9-7-|
     * * * *

Guitar 1
e| |---------------------------------|---------------------------------|
B| |---------------------------------|---------------------------------|
G| |11--11---9---9--1211---91211---9-|11--11---9---9---9---9---9---9---|
D| |--12--12--12--12-----------------|--12--12--12--12--11--11--12--12-|
A| |---------------------------------|---------------------------------|
D| |---------------------------------|---------------------------------|
                                                                       |
Guitar 2                                                               |
e| |---------------------------------|---------------------------------|
B| |---------------------------------|---------------------------------|
G| |---------------------------------|---------------------------------|
D| |---------------------4-------4---|-------------4-------------------|
A| |-----5-------5\4-----------------|-----5---------------4-----------|
D| |-9-9---7-7-7-----5-5---5-5-5---5-|-9-9---7-7-7---5-5-5---5-5-5-7\6-|
     * *   * * *     * *   * * *   *   * *   * * *   * * *   * * *

 _________________
|Verse (0:11-0:31)|
|_________________|

Guitar 1
e| |---------------------------------|---------------------------------|
B| |---------------------------------|---------------------------------|
G| |---------------------------------|---------------------------------|
D| |---------------------------------|---------------------------------|
A| |---------------------------------|---------------------------------|
D| |(9)~----(5)~----(0)~-------------|(9)~----(5)~----(7)~-------------|
       I heard a voice last night        It said wake up and open your
                                                                  eyes

Guitar 1
e| |---------------------------------|---------------------------------|
B| |---------------------------------|---------------------------------|
G| |---------------------------------|---------------------------------|
D| |---------------------------------|-----------------7-7-7-7-8-8-8-8-|
A| |---------------------------------|-----------------7-7-7-7-8-8-8-8-|
D| |(9)~----(5)~----(0)~-------------|(9)~----(5)~-----7-7-7-7-8-8-8-8-|
                                                       * * * *         |
       Wake up walk out tonight          She don't care if your dead   |
                                                              or alive |
                                                                       |
Guitar 2                                                               |
e| |---------------------------------|---------------------------------|
B| |---------------------------------|---------------------------------|
G| |---------------------------------|-------------------------3-3-3-3-|
D| |---------------------------------|-------------------------x-x-x-x-|
A| |---------------------------------|-------------------------1-1-1-1-|
D| |---------------------------------|---------------------------------|

 ______________________
|Pre-Chorus (0:31-0:41)|
|______________________|

Guitar 1
e| |---------------------------------|---------------------------------|
B| |---------------------------------|---------------------------------|
G| |---------------------------------|---------------------------------|
D| |-9-9-9-9-x-x-7-7-7-5-5-5-x-0-0-0-|-9-9-9-9-x-x-7-7-7-5-5-5-x-0-0-0-|
A| |-9-9-9-9-x-x-7-7-7-5-5-5-x-0-0-0-|-9-9-9-9-x-x-7-7-7-5-5-5-x-0-0-0-|
D| |-9-9-9-9-x-x-7-7-7-5-5-5-x-0-0-0-|-9-9-9-9-x-x-7-7-7-5-5-5-x-0-0-0-|
                             Dead or   alive                           |
                                                                       |
Guitar 2                                                               |
e| |---------------------------------|---------------------------------|
B| |---------------------------------|---------------------------------|
G| |-4-4-4-4-x-x-4-6-7-6-6-6-x-7-7-7-|-4-4-4-4-x-x-4-6-7-6-6-6-x-7-7-7-|
D| |-x-x-x-x-x-x-x-x-x-x-x-x-x-x-x-x-|-x-x-x-x-x-x-x-x-x-x-x-x-x-x-x-x-|
A| |-2-2-2-2-x-x-2-4-5-4-4-4-x-5-5-5-|-2-2-2-2-x-x-2-4-5-4-4-4-x-5-5-5-|
D| |---------------------------------|---------------------------------|

 _________________
|Verse (0:41-1:01)|
|_________________|

Guitar 1
e| |---------------------------------|---------------------------------|
B| |---------------------------------|---------------------------------|
G| |11--11---9---9--1211---91211---9-|11--11---9---9---9---9---9---9---|
D| |--12--12--12--12-----------------|--12--12--12--12--11--11--12--12-|
A| |---------------------------------|---------------------------------|
D| |---------------------------------|---------------------------------|
       She moves like beams of light     Straight through  In my head  |
                                         this universe                 |
                                                                       |
Guitar 2                                                               |
e| |---------------------------------|---------------------------------|
B| |---------------------------------|---------------------------------|
G| |---------------------------------|---------------------------------|
D| |--\------------------------------|---------------------------------|
A| |---------------------------------|---------------------------------|
D| |--\-----(5)~----(0)~-------------|(9)~----(5)~----(7)~-------------|

Guitar 1
e| |---------------------------------|---------------------------------|
B| |---------------------------------|---------------------------------|
G| |11--11---9---9--1211---91211---9-|11--11---9---9---9---9-----------|
D| |--12--12--12--12-----------------|--12--12--12--12--11--11---------|
A| |---------------------------------|---------------------------------|
D| |---------------------------------|---------------------------------|
       Where I get peace of mind         Free from the stupid things   |
                                                       that I said     |
                                                                       |
Guitar 2                                                               |
e| |---------------------------------|---------------------------------|
B| |---------------------------------|---------------------------------|
G| |---------------------------------|---------------------------------|
D| |---------------------------------|-----------------7-7-7-7-8-8-8-8-|
A| |---------------------------------|-----------------7-7-7-7-8-8-8-8-|
D| |(9)~----(5)~----(0)~-------------|(9)~----(5)~-----7-7-7-7-8-8-8-8-|
                                                       * * * *

 ______________________
|Pre-Chorus (1:01-1:11)|
|______________________|

Guitar 1
e| |---------------------------------|---------------------------------|
B| |---------------------------------|---------------------------------|
G| |---------------------------------|---------------------------------|
D| |-9-9-9-9-x-x-7-7-7-5-5-5-x-0-0-0-|-9-9-9-9-x-x-7-7-7-5-5-5-x-0-0-0-|
A| |-9-9-9-9-x-x-7-7-7-5-5-5-x-0-0-0-|-9-9-9-9-x-x-7-7-7-5-5-5-x-0-0-0-|
D| |-9-9-9-9-x-x-7-7-7-5-5-5-x-0-0-0-|-9-9-9-9-x-x-7-7-7-5-5-5-x-0-0-0-|
                            She's all in my head                       |
                                                                       |
Guitar 2                                                               |
e| |---------------------------------|---------------------------------|
B| |---------------------------------|---------------------------------|
G| |-4-4-4-4-x-x-4-6-7-6-6-6-x-7-7-7-|-4-4-4-4-x-x-4-6-7-6-6-6-x-7-7-7-|
D| |-x-x-x-x-x-x-x-x-x-x-x-x-x-x-x-x-|-x-x-x-x-x-x-x-x-x-x-x-x-x-x-x-x-|
A| |-2-2-2-2-x-x-2-4-5-4-4-4-x-5-5-5-|-2-2-2-2-x-x-2-4-5-4-4-4-x-5-5-5-|
D| |---------------------------------|---------------------------------|

 __________________
|Chorus (1:11-1:30)|
|__________________|

Guitar 1
e| |---------------------------------|---------------------------------|
B| |---------------------------------|---------------------------------|
G| |---------------------------------|---------------------------------|
D| |-0-0-0-0-0-0-0-0-8-8-8-8-8-8-8-8-|-9-9-9-9-9-9-9-9-9-9-9-9-7-7-7-7-|
A| |-0-0-0-0-0-0-0-0-8-8-8-8-8-8-8-8-|-9-9-9-9-9-9-9-9-9-9-9-9-7-7-7-7-|
D| |-0-0-0-0-0-0-0-0-8-8-8-8-8-8-8-8-|-9-9-9-9-9-9-9-9-9-9-9-9-7-7-7-7-|
         Did I get lost while I was    Gone    I traveled space for    |
                                               much too                |
                                                                       |
Guitar 2                                                               |
e| |---------------------------------|---------------------------------|
B| |---------------------------------|---------------------------------|
G| |-7-7-7-7-7-7-7-71010101010101010-|-1111111111111111111111111111111-|
D| |-x-x-x-x-x-x-x-x-x-x-x-x-x-x-x-x-|-x-x-x-x-x-x-x-x-x-x-x-x-x-x-x-x-|
A| |-5-5-5-5-5-5-5-5-8-8-8-8-8-8-8-8-|-9-9-9-9-9-9-9-9-9-9-9-9-9-9-9-9-|
D| |---------------------------------|---------------------------------|

Guitar 1
e| |---------------------------------|---------------------------------|
B| |---------------------------------|---------------------------------|
G| |---------------------------------|---------------------------------|
D| |-0-0-0-0-0-0-0-0-8-8-8-8-8-8-8-8-|-9-9-9-9-9-9-9-9-9-9-9-9-7-7-7-7-|
A| |-0-0-0-0-0-0-0-0-8-8-8-8-8-8-8-8-|-9-9-9-9-9-9-9-9-9-9-9-9-7-7-7-7-|
D| |-0-0-0-0-0-0-0-0-8-8-8-8-8-8-8-8-|-9-9-9-9-9-9-9-9-9-9-9-9-7-7-7-7-|
                                                                 * * * |
     Long  But there's a planet I have Found And you are far away      |
                                                                       |
Guitar 2                                                               |
e| |---------------------------------|---------------------------------|
B| |---------------------------------|---------------------------------|
G| |-7-7-7-7-7-7-7-71010101010101010-|-1111111111111111111111111111111-|
D| |-x-x-x-x-x-x-x-x-x-x-x-x-x-x-x-x-|-x-x-x-x-x-x-x-x-x-x-x-x-x-x-x-x-|
A| |-5-5-5-5-5-5-5-5-8-8-8-8-8-8-8-8-|-9-9-9-9-9-9-9-9-9-9-9-9-9-9-9-9-|
D| |---------------------------------|---------------------------------|

 _________________
|Verse (1:31-1:51)|
|_________________|

Guitar 1
e| |---------------------------------|---------------------------------|
B| |---------------------------------|---------------------------------|
G| |11--11---9---9--1211---91211---9-|11--11---9---9---9---9---9---9---|
D| |--12--12--12--12-----------------|--12--12--12--12--11--11--12--12-|
A| |---------------------------------|---------------------------------|
D| |---------------------------------|---------------------------------|
       Somewhere behind her eyes         Some supernatural energy      |
                                                                       |
Guitar 2                                                               |
e| |---------------------------------|---------------------------------|
B| |---------------------------------|---------------------------------|
G| |---------------------------------|---------------------------------|
D| |----------------------------(4)--|------------(4)------------------|
A| |----(5)-----(5\4)----------------|----(5)-------------(4)----------|
D| |(9)~----(5)~----(0)~-------------|(9)~----(5)~----(7)~-------------|

Guitar 1
e| |---------------------------------|---------------------------------|
B| |---------------------------------|---------------------------------|
G| |11--11---9---9--1211---91211---9-|11--11---9---9---9---9-----------|
D| |--12--12--12--12-----------------|--12--12--12--12--11--11---------|
A| |---------------------------------|---------------------------------|
D| |---------------------------------|---------------------------------|
       Takes me for quite the ride       Across time where I defy      |
                                                               gravity |
                                                                       |
Guitar 2                                                               |
e| |---------------------------------|---------------------------------|
B| |---------------------------------|---------------------------------|
G| |---------------------------------|---------------------------------|
D| |----------------------------(4)--|-------------(4)-7-7-7-7-8-8-8-8-|
A| |----(5)-----(5\4)----------------|----(5)----------7-7-7-7-8-8-8-8-|
D| |(9)~----(5)~----(0)~-------------|(9)~----(5)~-----7-7-7-7-8-8-8-8-|
                                                       * * * *
 ______________________
|Pre-Chorus (1:51-2:00)|
|______________________|

Guitar 1
e| |---------------------------------|---------------------------------|
B| |---------------------------------|---------------------------------|
G| |---------------------------------|---------------------------------|
D| |-9-9-9-9-x-x-7-7-7-5-5-5-x-0-0-0-|-9-9-9-9-x-x-7-7-7-5-5-5-x-0-0-0-|
A| |-9-9-9-9-x-x-7-7-7-5-5-5-x-0-0-0-|-9-9-9-9-x-x-7-7-7-5-5-5-x-0-0-0-|
D| |-9-9-9-9-x-x-7-7-7-5-5-5-x-0-0-0-|-9-9-9-9-x-x-7-7-7-5-5-5-x-0-0-0-|
                               This    Energy                          |
                                                                       |
Guitar 2                                                               |
e| |---------------------------------|---------------------------------|
B| |---------------------------------|---------------------------------|
G| |-4-4-4-4-x-x-4-6-7-6-6-6-x-7-7-7-|-4-4-4-4-x-x-4-6-7-6-6-6-x-7-7-7-|
D| |-x-x-x-x-x-x-x-x-x-x-x-x-x-x-x-x-|-x-x-x-x-x-x-x-x-x-x-x-x-x-x-x-x-|
A| |-2-2-2-2-x-x-2-4-5-4-4-4-x-5-5-5-|-2-2-2-2-x-x-2-4-5-4-4-4-x-5-5-5-|
D| |---------------------------------|---------------------------------|

 __________________
|Chorus (2:01-2:20)|
|__________________|

Guitar 1
e| |---------------------------------|---------------------------------|
B| |---------------------------------|---------------------------------|
G| |---------------------------------|---------------------------------|
D| |-0-0-0-0-0-0-0-0-8-8-8-8-8-8-8-8-|-9-9-9-9-9-9-9-9-9-9-9-9-7-7-7-7-|
A| |-0-0-0-0-0-0-0-0-8-8-8-8-8-8-8-8-|-9-9-9-9-9-9-9-9-9-9-9-9-7-7-7-7-|
D| |-0-0-0-0-0-0-0-0-8-8-8-8-8-8-8-8-|-9-9-9-9-9-9-9-9-9-9-9-9-7-7-7-7-|
         Did I get lost while I was    Gone    I traveled space for    |
                                               much too                |
                                                                       |
Guitar 2                                                               |
e| |---------------------------------|---------------------------------|
B| |---------------------------------|---------------------------------|
G| |-7-7-7-7-7-7-7-71010101010101010-|-1111111111111111111111111111111-|
D| |-x-x-x-x-x-x-x-x-x-x-x-x-x-x-x-x-|-x-x-x-x-x-x-x-x-x-x-x-x-x-x-x-x-|
A| |-5-5-5-5-5-5-5-5-8-8-8-8-8-8-8-8-|-9-9-9-9-9-9-9-9-9-9-9-9-9-9-9-9-|
D| |---------------------------------|---------------------------------|

Guitar 1
e| |---------------------------------|---------------------------------|
B| |---------------------------------|---------------------------------|
G| |---------------------------------|---------------------------------|
D| |-0-0-0-0-0-0-0-0-8-8-8-8-8-8-8-8-|-9-9-9-9-9-9-9-9-9-9-9-9-7-7-7-7-|
A| |-0-0-0-0-0-0-0-0-8-8-8-8-8-8-8-8-|-9-9-9-9-9-9-9-9-9-9-9-9-7-7-7-7-|
D| |-0-0-0-0-0-0-0-0-8-8-8-8-8-8-8-8-|-9-9-9-9-9-9-9-9-9-9-9-9-7-7-7-7-|
     Long  But there's a planet I have Found And you are far away      |
                                                               for now |
                                                                       |
Guitar 2                                                               |
e| |---------------------------------|---------------------------------|
B| |---------------------------------|---------------------------------|
G| |-7-7-7-7-7-7-7-71010101010101010-|-1111111111111111111111111111111-|
D| |-x-x-x-x-x-x-x-x-x-x-x-x-x-x-x-x-|-x-x-x-x-x-x-x-x-x-x-x-x-x-x-x-x-|
A| |-5-5-5-5-5-5-5-5-8-8-8-8-8-8-8-8-|-9-9-9-9-9-9-9-9-9-9-9-9-9-9-9-9-|
D| |---------------------------------|---------------------------------|

 __________________
|Bridge (2:21-3:05)|
|__________________|

Guitar 1
e| |---------------------------------|---------------------------------|
B| |---------------------------------|---------------------------------|
G| |---------------------------------|---------------------------------|
D| |-5~------------------------------|---------------------------------|
A| |-5~------------------------------|-9~--------------7~--------------|
D| |-5~------------------------------|-9~--------------7~--------------|
                                                                       |
Guitar 2                                                               |
e| |---------------------------------|---------------------------------|
B| |---------------------------------|---------------------------------|
G| |-4~------------------------------|---------------------------------|
D| |-x-------------------------------|---------------------------------|
A| |-2~------------------------------|---------------------------------|
D| |---------------------------------|---------------------------------|

Guitar 1
e| |---------------------------------|---------------------------------|
B| |---------------------------------|---------------------------------|
G| |---------------------------------|----------------11---7-7-7-7-7-7-|
D| |---------------------------------|-----------------x---x-x-x-x-x-x-|
A| |-9~--------------7~--------------|-5~--------------9---5-5-5-5-5-5-|
D| |-9~--------------7~--------------|-5~------------------------------|

Guitar 1
e| |---------------------------------|---------------------------------|
B| |---------------------------------|---------------------------------|
G| |11---7-7-7-7-7-7-9---6-6-6-6-6-6-|11---7-7-7-7-7-711---7-7-7-7-7-7-|
D| |-x---x-x-x-x-x-x-x---x-x-x-x-x-x-|-x---x-x-x-x-x-x-x---x-x-x-x-x-x-|
A| |-9---5-5-5-5-5-5-7---4-4-4-4-4-4-|-9---5-5-5-5-5-5-9---5-5-5-5-5-5-|
D| |---------------------------------|---------------------------------|

Guitar 1
e| |---------------------------------|---------------------------------|
B| |---------------------------------|---------------------------------|
G| |11---7-7-7-7-7-712------12-------|11--------------15---------------|
D| |-x---x-x-x-x-x-x-x-------x-------|-x---------------x---------------|
A| |-9---5-5-5-5-5-510------10-------|-9--------------13---------------|
D| |---------------------------------|---------------------------------|
                                         Did I get lost while I was

Guitar 1
e| |---------------------------------|
B| |---------------------------------|
G| |16--------------16---------------|
D| |-x---------------x---------------|
A| |14--------------14---------------|
D| |---------------------------------|
     Gone I traveled space for much too...

 __________________
|Chorus (3:06-3:26)|
|__________________|

Guitar 1
e| |---------------------------------|---------------------------------|
B| |---------------------------------|---------------------------------|
G| |---------------------------------|---------------------------------|
D| |-0-0-0-0-0-0-0-0-8-8-8-8-8-8-8-8-|-9-9-9-9-9-9-9-9-9-9-9-9-7-7-7-7-|
A| |-0-0-0-0-0-0-0-0-8-8-8-8-8-8-8-8-|-9-9-9-9-9-9-9-9-9-9-9-9-7-7-7-7-|
D| |-0-0-0-0-0-0-0-0-8-8-8-8-8-8-8-8-|-9-9-9-9-9-9-9-9-9-9-9-9-7-7-7-7-|
         Did I get lost while I was    Gone    I traveled space for    |
                                               much too                |
                                                                       |
Guitar 2                                                               |
e| |---------------------------------|---------------------------------|
B| |---------------------------------|---------------------------------|
G| |-7-7-7-7-7-7-7-71010101010101010-|-1111111111111111111111111111111-|
D| |-x-x-x-x-x-x-x-x-x-x-x-x-x-x-x-x-|-x-x-x-x-x-x-x-x-x-x-x-x-x-x-x-x-|
A| |-5-5-5-5-5-5-5-5-8-8-8-8-8-8-8-8-|-9-9-9-9-9-9-9-9-9-9-9-9-9-9-9-9-|
D| |---------------------------------|---------------------------------|

Guitar 1
e| |---------------------------------|---------------------------------|
B| |---------------------------------|---------------------------------|
G| |---------------------------------|---------------------------------|
D| |-0-0-0-0-0-0-0-0-8-8-8-8-8-8-8-8-|-9-9-9-9-9-9-9-9-9-9-9-9-7-7-7-7-|
A| |-0-0-0-0-0-0-0-0-8-8-8-8-8-8-8-8-|-9-9-9-9-9-9-9-9-9-9-9-9-7-7-7-7-|
D| |-0-0-0-0-0-0-0-0-8-8-8-8-8-8-8-8-|-9-9-9-9-9-9-9-9-9-9-9-9-7-7-7-7-|
     Long  But there's a planet I have Found And you are far away      |
                                                                       |
                                                                       |
Guitar 2                                                               |
e| |---------------------------------|---------------------------------|
B| |---------------------------------|---------------------------------|
G| |-7-7-7-7-7-7-7-71010101010101010-|-1111111111111111111111111111111-|
D| |-x-x-x-x-x-x-x-x-x-x-x-x-x-x-x-x-|-x-x-x-x-x-x-x-x-x-x-x-x-x-x-x-x-|
A| |-5-5-5-5-5-5-5-5-8-8-8-8-8-8-8-8-|-9-9-9-9-9-9-9-9-9-9-9-9-9-9-9-9-|
D| |---------------------------------|---------------------------------|

 _________________
|Outro (3:27-3:47)|
|_________________|

Guitar 1
e| |---------------------------------|---------------------------------|
B| |---------------------------------|---------------------------------|
G| |---------------------------------|---------------------------------|
D| |-0-0-0-0-0-0-0-0-8-8-8-8-8-8-8-8-|-9-9-9-9-9-9-9-9-0~--------------|
A| |-0-0-0-0-0-0-0-0-8-8-8-8-8-8-8-8-|-9-9-9-9-9-9-9-9-0~--------------|
D| |-0-0-0-0-0-0-0-0-8-8-8-8-8-8-8-8-|-9-9-9-9-9-9-9-9-0~--------------|
           You are far away...         Far away for    now...          |
                                                                       |
Guitar 2                                                               |
e| |---------------------------------|---------------------------------|
B| |---------------------------------|---------------------------------|
G| |-7-7-7-7-7-7-7-71010101010101010-|-11111111111111111---------------|
D| |-x-x-x-x-x-x-x-x-x-x-x-x-x-x-x-x-|-x-x-x-x-x-x-x-x-x---------------|
A| |-5-5-5-5-5-5-5-5-8-8-8-8-8-8-8-8-|-9-9-9-9-9-9-9-9-9---------------|
D| |---------------------------------|---------------------------------|

Guitar 1
e| |---------------------------------|---------------------------------|
B| |---------------------------------|---------------------------------|
G| |---------------------------------|---------------------------------|
D| |---------------------------------|---------------------------------|
A| |---------------------------------|---------------------------------|
D| |-9~------5~------0~--------------|-9~------7~------7~--------------|

 ________
| Legend |
|________|

~ - Sustain
\ - Slide down
x - Mute

 _______
| Notes |
|_______|

I'm going to try to get the violin part but I might get lazy and not do it.





Comments


Popular Yellowcard tabs & chords
Awakening Bass Tabs
Awakening Chords
Back Home Chords
Inside Out Chords
Ocean Avenue 5 Chords
Hidden Track Tabs
Holly Wood Died 2 Tabs
Ocean Avenue 3 Tabs
Only One 2 Tabs
Space Travel Intro Tabs


Song lyrics



↑ Back to top | Tablatures and chords are parodies/interpretations of the original songs. You may use it for private study, scholarship, research or language learning purposes only
© 2014 AZChords.com Contact us | Privacy policy | DMCA | Add/correct tabs | Request tabs | Top 50 tabs