» » »

Space Travel Tabs

Artists:  A B C D E F G H I J K L M N O P Q R S T U V W X Y Z # 

Space Travel Tabs

(ver. 1)
Yellowcard Tabs
 Rating:
4/5 (4 votes)
    Space Travel lessons Tabs too difficult? Try these video lessons and learn fast
                -------------------------------------------------------------------------------
-------------------------------------------------------------------------------


Tuning:Drop d Tuning
Intro 
e|-----------------------------------------------------------------------|
B|-7--7----------8-7------8-7----7--7--------------------------7~--------|
G|--7--7-9-7-9-7-----7--9----7-9--7--7-9-7-9-7-4-5-4-5-9-7-9-7-----------|
D|-----------------------------------------------------------------------|X 1
A|-----------------------------------------------------------------------|
D|-----------------------------------------------------------------------|
Verse/Intro Riff
e|-----------------------------------------------------------------------|
B|-----------------------------------------------------------------------|
G|-----------------------------2-----------------------------------------|
D|-----9-------5-------0-------2-----------------------------------------|X 6
A|-----9-------5-------0---0-0-0-----------------------------------------|
D|-9-9-9---5-5-5---0-0-0---.-.-------------------------------------------|
PM . .     . .     . .
Verse Fill
e|-----------------------------------------------------------------------|
B|-----------------------------------------------------------------------|
G|-----------------------------------------------------------------------|
D|-9----0----7----0------------------------------------------------------|X 2
A|-9-x4-0-X4-7-x4-0-x4---------------------------------------------------|
D|-9----0----7----0------------------------------------------------------|

e|-----------------------------------------------------------------------|
B|-7--7----------8-7------8-7----7--7------------------------------------|
G|--7--7-9-7-9-7-----7--9----7-9--7--7-9-7-9-7-4-5-4-5-9-7-9-7-----------|
D|-----------------------------------------------------------------------|X 2
A|-----------------------------------------------------------------------|
D|-----------------------------------------------------------------------|

e|-----------------------------------------------------------------------|
B|-----------------------------------------------------------------------|
G|-----------------------------2-----------------------------------------|
D|-----9-------5-------0-------2-----------------------------------------|X 4
A|-----9-------5-------0---0-0-0-----------------------------------------|
D|-9-9-9---5-5-5---0-0-0---.-.-------------------------------------------|
PM . .     . .     . .

e|--------------------------------------------------------------------|
B|--------------------------------------------------------------------|
G|--------------------------------------------------------------------|
D|-9----0----7----0---------------------------------------------------|X 2
A|-9-x4-0-X4-7-x4-0-x4------------------------------------------------|
D|-9----0----7----0---------------------------------------------------|

Chorus
e|--------------------------------------------------------------------|
B|--------------------------------------------------------------------|
G|--7-----------------------------------------------------------------|
D|--7-x8-8----9----5--------------------------------------------------| X 2
A|--5----8-x8-9-x8-5-x8-----------------------------------------------|
D|-------8----9----5--------------------------------------------------|

Violin Fill

Bridge
e|-------------------------------------------------------------------------|
B|-------------------------------------------------------------------------|
G|-7~----------------------------------------------------------------------|
D|-7~--8~----9~---5~-------------------------------------------------------|
A|-5~--8~----9~---5~-------------------------------------------------------|
D|-----8~----9~---5~-------------------------------------------------------|

Chorus
e|---------------------------------------------------------------------|
B|---------------------------------------------------------------------|
G|--7------------------------------------------------------------------|
D|--7-x8-8----9----5---------------------------------------------------| X 3
A|--5----8-x8-9-x8-5-x8------------------------------------------------|
D|-------8----9----5---------------------------------------------------|

This has been an Alpo Production



| /  slide up
| \  slide down
| h  hammer-on
| p  pull-off
| ~  vibrato
| +  harmonic
| x  Mute note
===============================================================================
            
Submit corrections

↑ Back to top | Yellowcard Tabs for Space Travel. Lyrics for acoustic guitar and electric guitar. Tablatures and chords are parodies/interpretations of the original songs. You may use it for private study, scholarship, research or language learning purposes only