>
 >
Southern Air 3

Southern Air 3 Guitar Tabs

Yellowcard - Southern Air 3 chords, tabs, tablatures, lyrics

Guitar lessons | Add/correct | Request | Top 50 tabs Artists:  A B C D E F G H I J K L M N O P Q R S T U V W X Y Z 0-9

Southern Air 3 Guitar Tabs – Yellowcard

CD, Sheet music, Poster

Do you like Southern Air 3? Share with your friends now
ChordsTabsTabs v2Tabs v3Ukulele

Tabs for the song: Southern Air (Acoustic) by Yellow
Please rate and let me know if you have any corrections. Thank you.


Tuning: Drop D (D A D G B E)


Intro
Acoustic 1:
E||----------------------------------------------------------------------------------------|
B||----------------------------------------------------------------------------------------|
G||----------------------------------------------------------------------------------------|
D||------------------------------------------------------------------------------------55--|
A||--55--55--55--55--5555--44--55--55--55--555---55--55--55--55--555---55--55--55--55--55--|
D||--00--00--00--00--0000--77--77--77--77--7770--44--44--44--44--4440--55--55--55--55--55--|


Acoustic 2:
E||----------------------------------------------------------------------------------------|
B||----------------------------------------------------------------------------------------|
G||----------------------------------------------------------------------------------------|
D||------------------------------------------------------------------------------------55--|
A||------------------------------------------------------------------------------------55--|
D||------------------------------------------------------------------------------------55--|



Verse
Acoustic 1:
E||------------------------------------------------------------------------------------------|
B||------------------------------------------------------------------------------------------|
G||------------------------------------------------------------------------------------------|
D||--------------------------------------------------------------------55--55--55--55--5555--| x2
A||--55--55--55--55--5555--44--55--55--55--555---55--55--55--55--5555--55--55--55--55--5555--|
D||--00--00--00--00--0000--77--77--77--77--7770--44--44--44--44--4444--55--55--55--55--5555--|


Acoustic 2:
E||------------------------------------------------------------------------------------------|
B||--33--33--33--33--3333--22--33--33--33--3333--33--33--33--33--3333--22--33--33--33--3333--|
G||--22--22--22--22--2222--22--22--22--22--2222--22--22--22--22--2222--22--22--22--22--2222--|
D||--00--00--00--00--0000--00--00--00--00--0000--00--00--00--00--0000--00--00--00--00--0000--| x2
A||------------------------------------------------------------------------------------------|
D||------------------------------------------------------------------------------------------|



Pre-Chorus
Acoustic 1:
E||-----------------------------------------------------------------------------|
B||-----------------------------------------------------------------------------|
G||-----------------------------------------------------------------------------|
D||-----------------------------------------------------------------------------|
A||--55--55--55--55--5555--44--55--55--55--5555--55--55--55--55--5555--55--55\--|
D||--99--99--99--99--9999--77--77--77--77--7777--44--44--44--44--4444--55--55\--|


Acoustic 2:
E||----------000-2222222---------00000000---------000-2222222---------000--------|
B||--222-333-333-3333333-222-333-33333333-222-333-333-3333333-222-333-333--------|
G||--222-222-------------222-222----------222-222-------------222-222-----00000--|
D||------------------------------------------------------------------------------|
A||------------------------------------------------------------------------------|
D||------------------------------------------------------------------------------|



Chorus
Acoustic 1:
E||-------------------------------------------2-------0~-------------------------|
B||-------5-------5~--------5-------5~--------3-------3~-------------------------|
G||-------7-------7~--------7-------7~---44--44--44--44~-------------------------|
D||--00--00--00--00~---00--00--00--00~---44--44--44--44~---55--5--555--5--55555--| x2
A||--00--00--00--00~---00--00--00--00~---22--22--22--22~---55--5--555--5--55555--|
D||--00--00--00--00~---00--00--00--00~---------------------55--5--555--5--55555--|


Acoustic 2:
E||-------------------------------------------2-------0~-------------------------|
B||-------3-------3~--------3-------3~--------3-------3~-------------------------|
G||-------2-------2~--------2-------2~---44--44--44--44~-------------------------|
D||--00--00--00--00~---00--00--00--00~---44--44--44--44~---55--5--555--5--55555--| x2
A||--00--0---00--0-----00--0---00--0-----22--22--22--22~---55--5--555--5--55555--|
D||--00--0---00--0-----00--0---00--0-----------------------55--5--555--5--55555--|



Pre Verse
Acoustic 1:
E||----------------------|
B||----------------------|
G||----------------------|
D||----------------------|
A||--55--55--55--55--55--|
D||--00--00--00--00--00--|


Acoustic 2:
E||----------------------|
B||----------------------|
G||----------------------|
D||----------------------|
A||------------------55--|
D||------------------00--|



Verse
Acoustic 1:
E||------------------------------------------------------------------------------------------|
B||------------------------------------------------------------------------------------------|
G||------------------------------------------------------------------------------------------|
D||--------------------------------------------------------------------55--55--55--55--5555--|
A||--55--55--55--55--5555--44--55--55--55--555---55--55--55--55--5555--55--55--55--55--5555--|
D||--00--00--00--00--0000--77--77--77--77--7770--44--44--44--44--4444--55--55--55--55--5555--|


Acoustic 2:
E||------------------------------------------------------------------------------------------|
B||--33--33--33--33--3333--22--33--33--33--3333--33--33--33--33--3333--22--33--33--33--3333--|
G||--22--22--22--22--2222--22--22--22--22--2222--22--22--22--22--2222--22--22--22--22--2222--|
D||--00--00--00--00--0000--00--00--00--00--0000--00--00--00--00--0000--00--00--00--00--0000--|
A||------------------------------------------------------------------------------------------|
D||------------------------------------------------------------------------------------------|



Pre-Chorus
Acoustic 1:
E||------------------------------------------------------------------------------------------|
B||------------------------------------------------------------------------------------------|
G||------------------------------------------------------------------------------------------|
D||------------------------------------------------------------------------------------------|
A||--55--55--55--55--5555--44--55--55--55--5555--55--55--55--55--5555--55--55--55--55--5555--|
D||--99--99--99--99--9999--77--77--77--77--7777--44--44--44--44--4444--55--55--55--55--5555--|


E||-----------|
B||-----------|
G||-----------|
D||-----------|
A||--55--55\--|
D||--55--55\--|


Acoustic 2:
E||----------000-2222222---------00000000---------000-2222222---------000--------|
B||--222-333-333-3333333-222-333-33333333-222-333-333-3333333-222-333-333--------|
G||--222-222-------------222-222----------222-222-------------222-222-----00000--|
D||------------------------------------------------------------------------------|
A||------------------------------------------------------------------------------|
D||------------------------------------------------------------------------------|


E||----------000--------|
B||--222-333-333--------|
G||--222-222-----00000--|
D||---------------------|
A||---------------------|
D||---------------------|



Chorus
Acoustic 1:
E||-------------------------------------------2-------0~-------------------------|
B||-------5-------5~--------5-------5~--------3-------3~-------------------------|
G||-------7-------7~--------7-------7~---44--44--44--44~-------------------------|
D||--00--00--00--00~---00--00--00--00~---44--44--44--44~---55--5--555--5--55555--| x2
A||--00--00--00--00~---00--00--00--00~---22--22--22--22~---55--5--555--5--55555--|
D||--00--00--00--00~---00--00--00--00~---------------------55--5--555--5--55555--|


Acoustic 2:
E||-------------------------------------------2-------0~-------------------------|
B||-------3-------3~--------3-------3~--------3-------3~-------------------------|
G||-------2-------2~--------2-------2~---44--44--44--44~-------------------------|
D||--00--00--00--00~---00--00--00--00~---44--44--44--44~---55--5--555--5--55555--| x2
A||--00--0---00--0-----00--0---00--0-----22--22--22--22~---55--5--555--5--55555--|
D||--00--0---00--0-----00--0---00--0-----------------------55--5--555--5--55555--|


Acoustic 1:
E||-------------------------------------------------------------------------|
B||-------------------------------------------------------------------------|
G||--999999999999-6666-7777777777777777-999999999999-6666-7777777777777777--|
D||--xxxxxxxxxxxx-xxxx-xxxxxxxxxxxxxxxx-xxxxxxxxxxxx-xxxx-xxxxxxxxxxxxxxxx--|
A||--777777777777-4444-5555555555555555-777777777777-4444-5555555555555555--|
D||-------------------------------------------------------------------------|


Acoustic 2:
E||-------------------------------------------------------------------------|
B||-------------------------------------------------------------------------|
G||-------------------------------------------------------------------------|
D||--777777777777-4444-5555555555555555-777777777777-4444-5555555555555555--|
A||--777777777777-4444-5555555555555555-777777777777-4444-5555555555555555--|
D||--777777777777-4444-5555555555555555-777777777777-4444-5555555555555555--|



Bridge
Acoustic 1/2:
E||--------------------------------------------------|
B||--------------------------------------------------|
G||--------------------------------------------------|
D||--xxxxxxxxxxxxxxx-------------'12'12'12'12'12'12--|
A||--xxxxxxxxxxxxxxx-------'12'12'12'12'12'12'12'12--|
D||--xxxxxxxxxxxxxxx-'12'12'12'12'12'12'12'12'12'12--|


Acoustic 1/2:
E||---------------|--------------------|
B||---------------|--------------------|
G||---------------|--------------------|
D||--5555---0000--|--7/999---11111111--|
A||--5555---0000--|--7/999---12121212--|
D||--5555---0000--|--7/999---11111111--|


E||---------------|--------------------|---------|
B||---------------|--------------------|---------|
G||---------------|--------------------|--9/11~--|
D||--5555---0000--|--7/999---11111111--|--x/x----|
A||--5555---0000--|--7/999---12121212--|--7/9-~--|
D||--5555---0000--|--7/999---11111111--|---------|


E||---------------|----------|---------------------|---------|
B||---------------|----------|---------------------|---------|
G||---------------|--12\11~--|---------------------|--9/11~--|
D||--5555---0000--|--x-\x----|--7/999----11111111--|--x/x----| x2
A||--5555---0000--|--10\9-~--|--7/999----12121212--|--7/9-~--|
D||--5555---0000--|----------|--7/999----11111111--|---------|



Interlude
Acoustic 1:
E||------------------------------------------------------|
B||------------------------------------------------------|
G||------------------------------------------------------|
D||--55---5~--555---5~--55555--00---0~--000---0~--00000--|
A||--55---5~--555---5~--55555--00---0~--000---0~--00000--|
D||--55---5~--555---5~--55555--00---0~--000---0~--00000--|


E||------------------------------------------------------|
B||------------------------------------------------------|
G||--44---4~--444---4~--44444----------------------------|
D||--44---4~--444---4~--44444--99---9~--999---9~--99999--| x2
A||--22---2~--222---2~--22222--99---9~--999---9~--99999--|
D||----------------------------99---9~--999---9~--99999--|


Acoustic 2:
E||------|--0~--|-------|-------|
B||------|--3~--|-------|-------|
G||--7~--|--2~--|--11~--|--9~---|
D||--5~--|--0~--|--9~---|--12~--|
A||--5~--|--0~--|--9~---|--12~--|
D||--5~--|--0~--|--9~---|--12~--|


E||----------------------------00---0~--000---0~--00000--|
B||----------------------------33---3~--333---3~--33333--|
G||--77---7~--777---7~--77777--22---2~--222---2~--22222--|
D||--55---5~--555---5~--55555--00---0~--000---0~--00000--|
A||--55---5~--555---5~--55555--00---0~--000---0~--00000--|
D||--55---5~--555---5~--55555--00---0~--000---0~--00000--|


E||-------------------------------------------------------------------------|
B||-------------------------------------------------------------------------|
G||--1111--11~-111111--11~-1111111111-9--9---9~---9-9-9----9~---9-9-9-9-9---|
D||--9-9---9~--9-9-9---9~--9-9-9-9-9--1212---12~--121212---12~--1212121212--|
A||--9-9---9~--9-9-9---9~--9-9-9-9-9--1212---12~--121212---12~--1212121212--|
D||--9-9---9~--9-9-9---9~--9-9-9-9-9--1212---12~--121212---12~--1212121212--|



Chorus
Acoustic 1:
E||-------------------------------------------2-------0~-------------------------|
B||-------5-------5~--------5-------5~--------3-------3~-------------------------|
G||-------7-------7~--------7-------7~---44--44--44--44~-------------------------|
D||--00--00--00--00~---00--00--00--00~---44--44--44--44~---55--5--555--5--55555--| x2
A||--00--00--00--00~---00--00--00--00~---22--22--22--22~---55--5--555--5--55555--|
D||--00--00--00--00~---00--00--00--00~---------------------55--5--555--5--55555--|


Acoustic 2:
E||-------------------------------------------2-------0~-------------------------|
B||-------3-------3~--------3-------3~--------3-------3~-------------------------|
G||-------2-------2~--------2-------2~---44--44--44--44~-------------------------|
D||--00--00--00--00~---00--00--00--00~---44--44--44--44~---55--5--555--5--55555--| x2
A||--00--0---00--0-----00--0---00--0-----22--22--22--22~---55--5--555--5--55555--|
D||--00--0---00--0-----00--0---00--0-----------------------55--5--555--5--55555--|


Acoustic 1:
E||-------------------------------------------------------------------------|
B||-------------------------------------------------------------------------|
G||--999999999999-6666-7777777777777777-999999999999-6666-7777777777777777--|
D||--xxxxxxxxxxxx-xxxx-xxxxxxxxxxxxxxxx-xxxxxxxxxxxx-xxxx-xxxxxxxxxxxxxxxx--|
A||--777777777777-4444-5555555555555555-777777777777-4444-5555555555555555--|
D||-------------------------------------------------------------------------|


Acoustic 2:
E||-------------------------------------------------------------------------|
B||-------------------------------------------------------------------------|
G||-------------------------------------------------------------------------|
D||--777777777777-4444-5555555555555555-777777777777-4444-5555555555555555--|
A||--777777777777-4444-5555555555555555-777777777777-4444-5555555555555555--|
D||--777777777777-4444-5555555555555555-777777777777-4444-5555555555555555--|



Outro
Acoustic 1/2:
E||----------------------------------------|------------------------------------------|
B||----------------------------------------|------------------------------------------|
G||------------9-9-9-----------------------|------------11-11-11----------------------|
D||--00000000--x-x-x---00000000------------|--55555555--x--x--x----55555555-----------| x2
A||--00000000--7-7-7---00000000------------|--55555555--9--9--9----55555555---4540----|
D||--00000000---------000000000--22204000--|--55555555------------055555555--0----55--|
(slight bend in octaves)


Acoustic 1:
E||----------------------------------------|------------------------------------------|
B||----------------------------------------|------------------------------------------|
G||------------9-9-9-----------------------|------------11-11-11----------------------|
D||--00000000--x-x-x---00000000------------|--55555555--x--x--x----55555555-----------| x2
A||--00000000--7-7-7---00000000------------|--55555555--9--9--9----55555555---4540----|
D||--00000000---------000000000--22204000--|--55555555------------055555555--0----55--|


Acoustic 2:
E||----------------------------------------|---------------------------------------|
B||----------------------------------------|---------------------------------------|
G||------------6-6-6-----------------------|------------7-7-7----------------------|
D||--00000000--x-x-x---00000000------------|--55555555--x-x-x---55555555-----------| x2
A||--00000000--4-4-4---00000000------------|--55555555--5-5-5---55555555---4540----|
D||--00000000---------000000000--22204000--|--55555555---------055555555--0----55--|



Acoustic 1:
E||-------------------------------------------2-------2~-------|
B||-------5-------5~--------5-------5~--------3-------3~---3~--|
G||-------7-------7~--------7-------7~---44--44--44--44~---4~--|
D||--00--00--00--00~---00--00--00--00~---44--44--44--44~---x~--|
A||--00--00--00--00~---00--00--00--00~---22--22--22--22~---5~--|
D||--00--00--00--00~---00--00--00--00~---------------------5~--|




Tablature Legend
----------------
 h   - hammer-on
 p   - pull-off
 b   - bend
 r   - release bend
 *   - pinch harmonic
 '   - natural harmonic
 x   - mute note
 .   - palm mute
 /   - slide down
 \   - slide up





Comments


Popular Yellowcard tabs & chords
Avondale 1 Bass Tabs
Believe 1 Bass Tabs
Two Weeks From Twenty 2 Bass Tabs
Believe 3 Chords
For You And Your Denial 1 Chords
Afraid Tabs
Everywhere 1 Tabs
Only One 2 Tabs
Sureshot Tabs
Life Of A Salesman Ukulele


Song lyrics



↑ Back to top | Tablatures and chords are parodies/interpretations of the original songs. You may use it for private study, scholarship, research or language learning purposes only
© 2014 AZChords.com Contact us | Privacy policy | DMCA | Add/correct tabs | Request tabs | Top 50 tabs