>
 >
Something Of Value 2

Something Of Value 2 Guitar Tabs

Yellowcard - Something Of Value 2 chords, tabs, tablatures, lyrics

Guitar lessons | Add/correct | Request | Top 50 tabs Artists:  A B C D E F G H I J K L M N O P Q R S T U V W X Y Z 0-9

Something Of Value 2 Guitar Tabs – Yellowcard

CD, Sheet music, Poster

Do you like Something Of Value 2? Share with your friends now
ChordsTabsTabs v2Tabs v3Tabs v4Tabs v5Ukulele
Yellowcard - Something Of Value

Standard Tuning
~ = let it ring
x = mute string
/ = slide
Listen closely to the song for rhythm and timing

Intro/chorus 
e|-x-|-3-----3-----------3-----3------------ 
B|-x-|-3-----3-----3-----3-----3-----3------ 
G|-0-|-0-----0-----2-----0-----0-----2------ 
D|-x-|-2-----0-----0-----2-----0-----0------ 
A|-x-|-3-----2-----0-----3-----2-----0------ 
E|-x-|-------3-----------------3-----2------ 

Verse x2 
e|--0-----0-----0---|---0-----0-----0-----0---|---0--- 
B|--0-----0-----0---|---0-----0-----0-----0---|---0--- 
G|--0-----4-----4---|---9-----7-----4-----4---|---9--- 
D|--2-----2-----2---|---9-----7-----2-----2---|---9--- 
A|--2-----4-----3---|-3/7-----5-----4-----3---|---7--- 
E|--0---------------|-------------------------|------- 

Repeat Chorus 

Bridge x2
e|-3-----3-----3-----3-----3-----3--|--3-----3--|--3--------- 
B|-3-----3-----3-----3-----3-----3--|--3-----3--|--3-----2--- 
G|-0-----2-----0-----0-----0-----2--|--0-----0--|--0-----2--- 
D|-0-----2-----2-----2-----0-----2--|--2-----2--|--2-----2--- 
A|-2-----0-----2-----3-----2-----0--|--2-----2--|--3-----0--- 
E|-3-----------0-----------3--------|--0-----0--|------------ 
 			  1st end 2nd end 

Solo Part x2
e|-------|-----------------3----3- 
B|-------|-----0-----0------------ 
G|-------|---------------0----0--- 
D|-----2-|---2------2---2----2----
A|---2---|-4-----3---------------- 
E|-0-----|------------------------
           2nd time

Verse x3
e|--0-----0-----0---|---0-----0-----0-----0---|---0--- 
B|--0-----0-----0---|---0-----0-----0-----0---|---0--- 
G|--0-----4-----4---|---9-----7-----4-----4---|---9--- 
D|--2-----2-----2---|---9-----7-----2-----2---|---9--- 
A|--2-----4-----3---|-3/7-----5-----4-----3---|---7--- 
E|--0---------------|-------------------------|-------

Repeat Chorus 

Repeat Bridge a few times 

Outro 
e|--3-----3-----------3~------------ 
B|--3-----3-----3-----3~------------ 
G|--0-----0-----2-----0~------------ 
D|--2-----0-----0-----2~------------ 
A|--3-----2-----0-----3~------------ 
E|--------3-------------------------
play the last chord light and slow





Comments


Popular Yellowcard tabs & chords
Down On My Head Chords
Ten Chords
Breathing 1 Tabs
Breathing Live Tabs
Ocean Avenue 5 Tabs
Possessions Tabs
See Me Smiling Tabs
Shadows And Regrets Tabs
Twenty Three Tabs
Oh My Love Ukulele


Song lyrics



↑ Back to top | Tablatures and chords are parodies/interpretations of the original songs. You may use it for private study, scholarship, research or language learning purposes only
© 2014 AZChords.com Contact us | Privacy policy | DMCA | Add/correct tabs | Request tabs | Top 50 tabs