» » »

Yellowcard, Sleep In The Snow Tabs (ver.2)

Artists:  A B C D E F G H I J K L M N O P Q R S T U V W X Y Z # 

Sleep In The Snow Tabs (ver.2)

Yellowcard Tabs
Rating:
0/5 (0 votes)
Sleep In The Snow lessons Tabs too difficult? Try these video lessons and learn fast
                This is my favorite song in their Southern Air Album. This is a great song!
I hope this tab help you. :D


Tuning: Drop D

Intro

Gtr. 1 
e|-5-5--5-5--2-2--2-2--2-2--2-2--0-0--0-0-|
B|-3-3--3-3--3-3--3-3--3-3--3-3--3-3--3-3-|
G|-0-0--0-0--0-0--0-0--2-2--2-2--2-2--2-2-|
D|----------------------------------------|     x4
A|----------------------------------------|
D|----------------------------------------|

Gtr. 2 synchro with the last two repetitions of Gtr1 intro. Just figure out the timing
e|--------------------------------------------------------|
B|--------------------------------------------------------|
G|-7---11-9---6---7----14---9-----------------------------|
D|--------------------------------------------------------|     x2
A|-5---9--7---4---5----12---7-----------------------------|
D|--------------------------------------------------------|
  (5)    (3) (3) (5)       (6)


Verse(x2) Gtr. 1
e|-----------------------------------------|
B|-----------------------------------------|
G|-----------------------------------------|
D|-----------------------------------------|
A|-------9-9-9-----7-7---------------------|
D|-9-9-9-------5-5-----0-0-0-0-0-0-0-0-0-0-|

e|------------------------------------------|
B|------------------------------------------|
G|------------------------------------------|
D|-------7-7-7------------------------------|
A|-----------------7/9-------9-9-9----10----|
D|-9-9-9-------5-5-----0-0-0------0-0-------|

PreChorus
Gtr.1
e|--------------------------|
B|--------------------------|
G|--------------------------|
D|-5-5-5-5-5-5--9-7-7-7-7-7-|
A|-5-5-5-5-5-5--9-7-7-7-7-5-|
D|-5-5-5-5-5-5--9-7-7-7-7---|

e|--------------------------|
B|--------------------------|
G|--------------------------|
D|-5-5-5-5-5-5--9-7-7-7-7-7-|
A|-5-5-5-5-5-5--9-7-7-7-7-7-|
D|-5-5-5-5-5-5--9-7-7-7-7-7-|

Gtr. 2 just figure out the timing
e|--------------------------|
B|--------------------------|
G|-7-11-9-14---7-14-9-------|
D|--------------------------|
A|-5-9--7-12---5-12-7-------|
D|--------------------------|

Chorus
e|-----------------------------------------------------|
B|-----------------------------------------------------|
G|-----------------------------------------------------|
D|-0-0-0-0-0-0--7-7-7--4-4-4--5-5-5-5-5-5--7-7-7-7-7-7-|
A|-0-0-0-0-0-0--4-4-4--2-2-2--5-5-5-5-5-5--7-7-7-7-7-7-|
D|-0-0-0-0-0-0----------------5-5-5-5-5-5--7-7-7-7-7-7-|

e|-----------------------------------------------------|
B|-----------------------------------------------------|
G|-----------------------------------------------------|
D|-0-0-0-0-0-0--7-7-7--4-4-4--5-5-5-5-7-9--7-7-7-7-7-7-|
A|-0-0-0-0-0-0--4-4-4--2-2-2--5-5-5-5-7-9--7-7-7-7-7-7-|
D|-0-0-0-0-0-0----------------5-5-5-5-7-9--7-7-7-7-7-7-|

Bridge
Gtr1 (play the intro)

Gtr2
e|--------------------------------|
B|--------------------------------|
G|--------------------------------|
D|-5---7---5---7------------------|
A|-5---7---5---7------------------|
D|-5---7---5---7------------------|
  (6) (6) (6) (6)

e|--------------------------------|
B|--------------------------------|
G|--------------------------------|
D|-9---7---5---7------------------|     x2
A|-9---7---5---7------------------|
D|-9---7---5---7------------------|
  (6) (6) (6) (6)

Outro:
e|-2-0-0-0-|
B|-3-3-2-3-|
G|-2-2-2-2-|
D|---------|
A|---------|
D|---------|


That's all! :D
            

comments powered by Disqus
↑ Back to top | Yellowcard Tabs for Sleep In The Snow. Lyrics for acoustic guitar and electric guitar. Tablatures and chords are parodies/interpretations of the original songs. You may use it for private study, scholarship, research or language learning purposes only