>
 >
Sing For Me

Sing For Me Guitar Tabs

Yellowcard - Sing For Me chords, tabs, tablatures, lyrics

Guitar lessons | Add/correct | Request | Top 50 tabs Artists:  A B C D E F G H I J K L M N O P Q R S T U V W X Y Z 0-9

Sing For Me Guitar Tabs – Yellowcard

CD, Sheet music, Poster

Do you like Sing For Me? Share with your friends now
ChordsChords v2Chords v3Chords v4Chords v5Chords v6TabsTabs v2UkuleleUkulele v2
Standard Tuning
Intro/Verse
Rhythm (You can either strum it once and let it ring or make a rhythm)
e-0~---0~---1~---0~---|
b-1~---1~---1~---1~---|
g-0~---2~---2~---0~---|
d-2~---2~---3~---2~---|
a-3~---0~---3~---3~---|
e-0~---0~---1~---0~---|

Lead (Palm muted)
e-------------------------------------------------|
b-------------------------------------------------|
g-------12-12-------12-12-------12-12-------12-12-|
d-14-14-------14-14-------14-14-------14-14-------|
a-------------------------------------------------|
e-------------------------------------------------|

Pre-chorus
Rhythm
e-1-1-1-1-1-1-1-1-0-0-0-0-0-0-0-0-1-1-1-1-1-1-1-1-1-1-1-1-1-1-1-1--|
b-3-3-3-3-3-3-3-3-1-1-1-1-1-1-1-1-1-1-1-1-1-1-1-1-1-1-1-1-1-1-1-1--|
g-2-2-2-2-2-2-2-2-2-2-2-2-0-0-0-0-2-2-2-2-2-2-2-2-2-2-2-2-2-2-2-2--|
d-0-0-0-0-0-0-0-0-2-2-2-2-2-2-2-2-3-3-3-3-3-3-3-3-3-3-3-3-3-3-3-3--|
a-0-0-0-0-0-0-0-0-0-0-0-0-3-3-3-3-3-3-3-3-3-3-3-3-3-3-3-3-3-3-3-3--|
e-------------------------0-0-0-0-1-1-1-1-1-1-1-1-1-1-1-1-1-1-1-1--|

Lead
(At the first 13 note on the b string, it sounds like as the note rings out, he plays
the 10 and 12 notes on the g-string and let's the 12 ring out as well.  Since the 10 12 notes
on the g- string is very faint afterward, I'll say it's optional to play it or not)
e-------------------------------10--------------------------------13-12-----|
b----------13~------------------------13~-------------13----------------13~-|
g-10h12p10---(10-12~-)-10h12p10----12------12-10h12p10----10-12~------------|
d---------------------------------------------------------------------------|
a---------------------------------------------------------------------------|
e---------------------------------------------------------------------------|

Chorus (There's a 3rd guitar that plays a different rhythm.  This will be dubbed rhythm 2.)
Rhythm
e-0-0-0-0-0-0-0-0-1-1-1-1-1-1-1-1-0-0-0-0-0-0-0-0-1-1-1-1-1-1-1-1-|
b-1-1-1-1-1-1-1-1-1-1-1-1-1-1-1-1-1-1-1-1-1-1-1-1-1-1-1-1-1-1-1-1-|
g-0-0-0-0-0-0-0-0-2-2-2-2-2-2-2-2-2-2-2-2-2-2-2-2-2-2-2-2-2-2-2-2-|
d-2-2-2-2-2-2-2-2-3-3-3-3-3-3-3-3-2-2-2-2-2-2-2-2-3-3-3-3-3-3-3-3-|
a-3-3-3-3-3-3-3-3-3-3-3-3-3-3-3-3-0-0-0-0-0-0-0-0-3-3-3-3-3-3-3-3-|
e-0-0-0-0-0-0-0-0-1-1-1-1-1-1-1-1-----------------1-1-1-1-1-1-1-1-|

Rhythm 2
e------------------------------------|
b----8----8----8----8----8----8----8-|
g----9----9----9----9----9----9----9-|
d-10---10---10---10---10---10---10---|
a------------------------------------|
e------------------------------------|

Lead (Really faint)
e----15-12------|
b-13-------15~--|
g---------------| repeat
d---------------| as needed
a---------------|
e---------------|



Verse
Pre-Chorus
Chorus

Bridge
Rhythm
e-0-0-0-0-0-0-0-0-1-1-1-1-1-1-1-1-|
b-1-1-1-1-1-1-1-1-1-1-1-1-1-1-1-1-|
g-2-2-2-2-2-2-2-2-2-2-2-2-2-2-2-2-|
d-2-2-2-2-2-2-2-2-3-3-3-3-3-3-3-3-|
a-0-0-0-0-0-0-0-0-3-3-3-3-3-3-3-3-|
e-----------------1-1-1-1-1-1-1-1-|

Rhythm 2
e------------------------------------|
b----8----8----8----8----8----8----8-|
g----9----9----9----9----9----9----9-|
d-10---10---10---10---10---10---10---|
a------------------------------------|
e------------------------------------|

Lead
e-12~--13----13------12~--13------------|
b-13~--13-------13~--13~--13----13------|
g-12~--14-14---------12~--14-12----12~--|2x
d-14~--15------------14~--15------------|
a---------------------------------------|
e---------------------------------------|

Verse
Chorus

End with
e-1~--
b-1~--
g-2~--
d-3~--
a-3~--
e-1~--





Comments


Popular Yellowcard tabs & chords
Inside Out Chords
Bombers Intro Tabs
For Petes Sake (Solo) Tabs
Gifts And Curses 1 Tabs
One Year, Six Months 2 Tabs
Takedown 2 Tabs
Awakening Ukulele
Life Of Leaving Home Ukulele
Promises Ukulele
Waiting Game Ukulele


Song lyrics



↑ Back to top | Tablatures and chords are parodies/interpretations of the original songs. You may use it for private study, scholarship, research or language learning purposes only
© 2014 AZChords.com Contact us | Privacy policy | DMCA | Add/correct tabs | Request tabs | Top 50 tabs