» » »

Yellowcard, Paper Walls Tabs (ver.2)

Artists:  A B C D E F G H I J K L M N O P Q R S T U V W X Y Z # 

Paper Walls Tabs (ver.2)

Yellowcard Tabs
 Rating:
4/5 (4 votes)
Paper Walls lessons Tabs too difficult? Try these video lessons and learn fast
1
                standard

intro (rhythm is easy to figure out for the strum pattern)
e--2--3--2--|
b--3--3--3--|
g--4--0--2--| repeat several times
d--4--0--0--|
a--2--2-----|
e-----3-----|

intro part 2
e------------------------------------------------------------|
b------------------------------------------------------------|
g----------7-7-7-7-----------4-7-4---------------------------|
d-4-4-4-4--7-7-7-7--4-4-4-4--x-x-x-4--4-4-4--9-9-9-9-7-7-7-7-|
a-4-4-4-4--5-5-5-5--4-4-4-4--2-5-2-4--4-4-4--9-9-9-9-7-7-7-7-|
e-2-2-2-2-----------2-2-2-2--------2--2-2-2--7-7-7-7-5-5-5-5-|

verse (guitar 1   might be bass though)
e--------------------------------------------------------|
b-palm mute whole thing -------- then -------------------|
g-44444444-----------------------------------------------|
d-44444444-55555555-44444444----22222222-55555555--------|
a-22222222-55555555-44444444-2x-22222222-55555555--------|
e----------33333333-22222222----00000000-33333333--------|

guitar 2 plays this quietly in background 2nd part of verse
e----------------------------------------------------------------|
b----------------------------------------------------------------|
g----------------------------------------------------------------|
d-----7-7-----7-7-----7-7-----7-7-----7-7-----7-7----5-5-----4-4-|
a-5-5-----5-5----------------------------------------------------|
e-----------------7-7-----7-7-----5-5-----5-5-----3-3----2-2-----|

prechorus
guitar 1
e------------------------------------------|
b------------------------------------------|
g----palm mute these parts-----------------|
d-22222222-55555555-22222222-55555555------|
a-22222222-55555555-22222222-55555555------|
e-00000000-33333333-00000000-33333333------|

guitar2 (second part of pre-chorus)
e--------------------------------------------------------------|
b--some distortion i think (idk, i'm tabbing in acoustic)------|
g-1111111111111111--77-14b14b14b14b14b14b14b14b----------------|
d--x-x-x-x-x-x-x-x--xx--x--x--x--x--x--x--x--x-----------------|
a--9-9-9-9-9-9-9-9--55-12b12b12b12b12b12b12b12b----------------|
e--------------------------------------------------------------|

chorus
e-----------------------------|
b-----------------------------|
g--77777777-44444444----------|
d--77777777-44444444-55555555-|
a--55555555-22222222-55555555-|
e--------------------33333333-|

bridge (guitar 1)
e------------------------------------------|
b------------------------------------------|
g--------------------------------4444------|
d-4444-4-4-4-4444-4-4-4-44444444-4444-4444-|
a-4444-4-4-4-4444-4-4-4-44444444-2222-4444-|
e-2222-2-2-2-2222-2-2-2-22222222------2222-|

(guitar 2:  lead) 1st part of bridge
e--------------|
b--------------|
g--6h7p6-------|
d--------9-7---|
a------------9-|
e--------------|

2nd part of bridged
e-distortion i think----------------|
b-still tabbing acoustic :)  -------|
g-11b-11b-11b--14b-14b-14b----------|
d--x---x---x----x---x---x-----------|
a--9b--9b--9b--12b-12b-12b----------|
e-----------------------------------|

   repeat 2x but second time doesn't have solo bit at end
e---------------------------------------------------------------------|
b---------------------------------------------------------------------|
g-11-11-11-11--11/12/11--14-14/16/11--11-11-11/16---------------------|
d--x--x--x--x---x/-x/-x---x--x/-x/-x---x--x--x/-x--11h12p11-----------|
a--9--9--9--9---9/10/-9--12-12/14/-9---9--9--9/14-----------14-12-----|
e----------------------------------------------------------------14---|

play intro
pre chorus to last chorus
guitar 1
e----------------------------------------|
b----------------------------------------|
g----------------------------------------|
d-22222222--44444444--22222222--44444444-|
a-22222222--44444444--22222222--44444444-|
e-00000000--22222222--00000000--22222222-|

guitar 2
e-----------------------------------------------------------------------|
b-----------------------------------------------------------------------|
g-6666--9-11111111111111--99999999-1111111111111111-14b14b14b14b14b14b--|
d-xxxx--x--x-x-x-x-x-x-x--xxxxxxxx--x-x-x-x-x-x-x-x--x--x--x--x--x--x---|
a-4444--7--9--9--9--9--9--77777777--9-9-9-9-9-9-9-9-12b12b12b12b12b12b--|
e-----------------------------------------------------------------------|

that's it.
just gotta know when to play each part
            
Submit corrections

comments powered by Disqus
↑ Back to top | Yellowcard Tabs for Paper Walls. Lyrics for acoustic guitar and electric guitar. 1 Tablatures and chords are parodies/interpretations of the original songs. You may use it for private study, scholarship, research or language learning purposes only