>
 >
Only One 8

Only One 8 Guitar Tabs

Yellowcard - Only One 8 chords, tabs, tablatures, lyrics

Guitar lessons | Add/correct | Request | Top 50 tabs Artists:  A B C D E F G H I J K L M N O P Q R S T U V W X Y Z 0-9

Only One 8 Guitar Tabs – Yellowcard

CD, Sheet music, Poster

Do you like Only One 8? Share with your friends now
Bass TabsChordsChords v2Chords v10Chords v3Chords v4Chords v5Chords v6Chords v7Chords v8Chords v9TabsTabs v2Tabs v3Tabs v4Tabs v5Tabs v6Tabs v7Tabs v8UkuleleUkulele v2
My first tab!!! This is one of my favorite songs enjoy!

intro or verse
e----0-------0--------0------0-------0---------0------0------0--------0------|
b-------0-------0---------------0-------0----------------0------0------------|
g--1-------1-------1------1--------1--------1------2--------2------2---------|
d----------------------------------------------------------------------------|
a----------------------------------------------------------------------------|
E----------------------------------------------------------------------------|

-----0-------0---------0-------0--------0--------0------0-------0-----------0--|
--------0-------0-----------------0--------0---------------0-------0-----------|
--2--------2-------2-------4---------4--------4------6--------6-------6--------|
-------------------------------------------------------------------------------|
-------------------------------------------------------------------------------|
-------------------------------------------------------------------------------|

-----------0-------0---------0-------0-------0-------0-------|
--------------0-------0-----------------0-------0------------|
-------2---------2-------2--------2--------2-------2---------|
-------------------------------------------------------------|
-------------------------------------------------------------|
-------------------------------------------------------------|

i feel so broken up
chords
----------------------------|
----------------------------|
---4----6----2----4---------|
---4----6----2----4---------|
---2----4----0----2---------|
---0----0----0----0---------|

chorus
these are the chords you can figure out a strumming pattern
---4----5----0--------------4---5----0------------4-------|
---5----5----0--------------5---4----0------------5-------|
---6----6----1-----4---5----6---6----1---4----5---6-------|
---6----7----2-----4---5----6---7----2---4----5---6-------|
---4----7----2-----2---3----4---7----2---2----3---4-------|
--------5----0------------------5--------0----------------|

Bridge
It consists of the violin part woven into the  strumming 
just go between strumming and picking
-------------4---------------7-----7-----5----------------------|
----5--7-----5----------5----------x-----x----------------------|
-------------6---------------------6-----6-----9-----6-----9----|
-------------6---------------------x-----x-----x-----x-----x----|
-------------4---------------------7-----7-----7-----7-----7----|
-----------------------------------5-----5-----5-----5-----5----|


-------4------------0------0------4-----4-------2--------2---|
--7--------x--------0------0------------x-------2--------2---|
-------1------------1------1------------x-------x--------x---|
-------2------------2------2------------4-------4--------4---|
-------2------------2------2------------2-------2--------2---|
-------0------------0------0---------------------------------|


------------4----------------7----7-----5-----7-----5-----7-----4----|
--5---7-----5---------5-----------x-----x-----x-----x-----x-----x----|
------------6---------------------6-----6-----9-----6-----9-----1----|
------------6---------------------x-----x-----x-----x-----x-----2----|
------------4---------------------7-----7-----7-----7-----7-----2----|
----------------------------------5-----5-----5-----5-----5-----2----|

--0---0---4---4---2---2------|
--0---0-------x---2---2------|
--1---1-------x---2---2------|
--2---2-------4---4---4------|
--2---2-------2---2---2------|
--0---0----------------------|

Thats it
Hope you like it!





Comments


Popular Yellowcard tabs & chords
Gifts And Curses Bass Tabs
Twenty Three Bass Tabs
Afraid Chords
Back Home 1 Chords
Inside Out 1 Chords
Only One 2 Chords
Way Away 2 Chords
Lights And Sounds 4 Tabs
Space Travel 1 Tabs
Sureshot Tabs


Song lyrics



↑ Back to top | Tablatures and chords are parodies/interpretations of the original songs. You may use it for private study, scholarship, research or language learning purposes only
© 2014 AZChords.com Contact us | Privacy policy | DMCA | Add/correct tabs | Request tabs | Top 50 tabs