» » »

Yellowcard, Only One Tabs (ver.4)

Artists:  A B C D E F G H I J K L M N O P Q R S T U V W X Y Z # 

Only One Tabs (ver.4)

Yellowcard Tabs
Rating:
0/5 (0 votes)
Only One lessons Tabs too difficult? Try these video lessons and learn fast
                OK. This is an amazing song and there is only one tab for it.
That tab is good, it's just confusing w/ the seven guitars
(3 of which are violins).  So I simplified that tab and changed
the intro so you don't have to stretch your fingers as much.


Simplified by Josh

Intro/Verse (use some effects on both guitars)

Guitar 1
e|-------------------------------------|-------7-------7-------7-------7-|
B|---9------9------9------9------9-----|---------------------------------|
G|-----9------9------9------9------9---|---------------------------------|
D|-9-----9------9-------9-----9------9-|-7--9----7--9----7--9----7--9----|
A|-------------------------------------|---------------------------------|
E|-------------------------------------|---------------------------------|

e|----------------------|----------------------|
B|----------------------|----------------------|
G|----8---9--8--9--8-9--|------9-------9----9--|
D|-9----9------9--------|--9--9---9---9---9----|
A|----------------------|----------------------|
E|----------------------|----------------------|

e|-------7-------7--------------------------|
B|---------------------10--------9-------10-|
G|------------------------------------------|
D|-7--9----7--9----7--9----7--9----7--9-----|
A|------------------------------------------|
E|------------------------------------------|

Guitar 2
e|-------------------------------------|---------------------------------|
B|-------------------------------------|---------------------------------|
G|---9------9------9------9------9-----|---9-------9-------9-----9---9---|
D|-----9------9------9------9------9---|-----9-------9-------9----9----9-|
A|11-----11-----11-----11-----11-----11|12------12------12-----12---12---|
E|-------------------------------------|---------------------------------|

e|----------------------|----------------------|
B|----------------------|----------------------|
G|---------9-----9----9-|-------9-------9----9-|
D|----9--9---9-9---9----|-11-11---11-11---11---|
A|-12-------------------|----------------------|
E|----------------------|----------------------|

e|-----------------------------------------|
B|-----------------------------------------|
G|------13------13------11------9------11--|
D|----9-------9-------9-------9------9-----|
A|-12------12------12------12-----12-------|
E|-----------------------------------------|

Pre Chorus(effects)

Guitar 1
e|---------------------------------------------------------------------|
B|---------------------------------------------------------------------|
G|9-8---9-8---9-8--9-8---9-8---9-8--9-8----9-8----9-8--9-8----9-8---9-8|
D|-----9-----9----------9-----9----------11-----11----------11----11---|
A|---------------------------------------------------------------------|
E|---------------------------------------------------------------------|

e|---------------------------------------------------------------------|
B|---------------------------------------------------------------------|
G|/13-13-13-13-13-13-13-13-14-14-13-13-13-13-11-11-11-11-11----11----13|
D|----------------------------------------------------------13----13---|
A|---------------------------------------------------------------------|
E|---------------------------------------------------------------------|

Guitar 2
e|---------------------------------------------------------------------|
B|---------------------------------------------------------------------|
G|-----9-----9---9------9-----9---9-------9------9---9-------9-----9--9|
D|-9-9---9-9---9----9-9---9-9---9----11-11--11-11--11--11-11--11-11-11-|
A|---------------------------------------------------------------------|
E|---------------------------------------------------------------------|

e|----------------------------------------------------------------------|
B|----------------------------------------------------------------------|
G|-/9--9--9--9--9--9--9--9--9--9--9--9--9--9--8--8--8--8--8-----9----11-|
D|----------------------------------------------------------11----11----|
A|----------------------------------------------------------------------|
E|----------------------------------------------------------------------|

Guitar 3
e|---------------------------------------------------------|
B|---------------------------------------------------------|
G|-4-4--4-4-4--4-4-4--4-4-4--4-6-6--6-6-6--6-6-6--6-6-6--6-|
D|-4-4--4-4-4--4-4-4--4-4-4--4-6-6--6-6-6--6-6-6--6-6-6--6-|
A|-2-2--2-2-2--2-2-2--2-2-2--2-4-4--4-4-4--4-4-4--4-4-4--4-|
E|---------------------------------------------------------|

e|------------------------------------------------------|
B|------------------------------------------------------|
G|-----------------------------4-4--4-4-4--4--4-4-4-4-4-|
D|-2-2--2-2-2--2-2-2--2-2-2--2-4-4--4-4-4--4--4-4-4-4-4-|
A|-2-2--2-2-2--2-2-2--2-2-2--2-2-2--2-2-2--2--2-2-2-2-2-|
E|-0-0--0-0-0--0-0-0--0-0-0--0--------------------------|


Chorus

Guitar 1
e|-------------------------------------------------|
B|-------------------------------------------------|
G|-6-6-6-6-6-6-6-6-9-9-9-9-9-9-9-9-9-9-9-9-9-9-9-9-|
D|-x-x-x-x-x-x-x-x-x-x-x-x-x-x-x-x-x-x-x-x-x-x-x-x-|
A|-4-4-4-4-4-4-4-4-7-7-7-7-7-7-7-7-7-7-7-7-7-7-7-7-|
E|-------------------------------------------------|

e|---------------------------------|
B|---------------------------------|
G|-4-4-4-4-4-4-4-4-5-5-5-5-5-5-5-5-|
D|-x-x-x-x-x-x-x-x-x-x-x-x-x-x-x-x-|
A|-2-2-2-2-2-2-2-2-3-3-3-3-3-3-3-3-|
E|---------------------------------|

e|------------------------------------------------|
B|------------------------------------------------|
G|6-6-6-6-6-6-6-6---------------------------------|
D|6-6-6-6-6-6-6-6-7-7-7-7-7-7-7-7-2-2-2-2-2-2-2-2-|
A|4-4-4-4-4-4-4-4-7-7-7-7-7-7-7-7-2-2-2-2-2-2-2-2-|
E|----------------5-5-5-5-5-5-5-5-0-0-0-0-0-0-0-0-|

e|---------------------------------|
B|---------------------------------|
G|-4-4-4-4-4-4-4-4-5-5-5-5-5-5-5-5-|
D|-4-4-4-4-4-4-4-4-x-x-x-x-x-x-x-x-|
A|-2-2-2-2-2-2-2-2-3-3-3-3-3-3-3-3-|
E|---------------------------------|


Post Chorus

Guitar 4 (violin 1)
e|--------------------------------------------|
B|---------14~----12~-------------------------|
G|-13~------x------x-------13~----------------|
D|--x------11~-----9~-------x---------11-\-9~-|
A|-11~---------------------11~---------x---x--|
E|-------------------------------------9-\-7~-|

Guitar 5 (violin 2)
e|--------------------------------------------|
B|--------------------------------------------|
G|--------------------------------------------|
D|-6~-------7~------9~-----6~--------------2~-|
A|-x--------x-------x------x---------------x--|
E|-4~-------5~------7~-----4~--------------0~-|


Verse 2:

Guitar 1 and Guitar 2 play Intro/Verse

Guitar 3
e|-0-|-0-|-0-|-0-|-0-|
B|-x-|-x-|-x-|-x-|-x-|
G|-6-|-2-|-4-|-6-|-2-|(chord changes when
D|-6-|-2-|-4-|-6-|-2-|fingerings of effects
A|-4-|-0-|-2-|-4-|-0-|change)
E|---|---|---|---|---|


Pre-Chorus:

Guitar 1, Guitar 2, and Guitar 3 repeat 1st Pre-Chorus

Guitar 4 (violin 1)
e|-----------------------------|-------------------------------------|--hit-|
B|-----------------------------|-------------------------------------|---a--|
G|--9------9------9---11---9---|---9--------9--------9----11----9----|-bunch|
D|9---9--9---9--9---9----9---9-|11---11--11---11--11---11----11---11-|14-|13|
A|-----------------------------|-------------------------------------|---|--|
E|-----------------------------|-------------------------------------|---|--|

Guitar 5 (violin 2)
e|---|----|---|---------14--17-16~--------------17-16------------|----|----|
B|---|----|---|---12~--------------17~------14----------17~---12~|-13~|-14~|
G|---|----|13~|--------------------------------------------------|----|----|
D|11~|-14~|---|--------------------------------------------------|----|----|
A|---|----|---|--------------------------------------------------|----|----|
E|---|----|---|--------------------------------------------------|----|----|


Guitar 1 and Guitar 2 repeat Chorus


Solo

Guitar 4 (violin 1)
e|------16~|------19-19-17--------------------16~|-------16-16-------|------|
B|17-19----|17-17------------17-17--14-17-19-----|-17-17-------19-19~|17-14~|
G|---------|-------------------------------------|-------------------|------|
D|---------|-------------------------------------|-------------------|------|
A|---------|-------------------------------------|-------------------|------|
E|---------|-------------------------------------|-------------------|------|

Guitar 5 (violin 2)
e|----------------------|----14-15/16~|----------------19-19--17~-|
B|-------12-14-16-17-14~|-17----------|-17-14~--17-17-------------|
G|-13-14----------------|-------------|---------------------------|
D|----------------------|-------------|---------------------------|
A|----------------------|-------------|---------------------------|
E|----------------------|-------------|---------------------------|

e|-16-17-16-------|----------------|----------------------------------|
B|----------17----|----------------|----------------------------------|
G|-------------16~|-----ringing----|-16-18-16-------------------------|
D|----------------|----------------|----------18-14--18-(18)/19-18-16-|
A|----------------|----------------|----------------------------------|
E|----------------|----------------|----------------------------------|

Guitar 3
e|----------|--------------------------------------|---------------------|
B|----------|-------\9--9--7-----------------------|---------------------|
G|--6--8--9~|-6-6-6------------6--6-------6--8--9~-|--6--6--9--9--8--8-9-|
D|----------|--------------------------6-----------|---------------------|
A|----------|--------------------------------------|---------------------|
E|----------|--------------------------------------|---------------------|

e|----------------------|-------------|-----------------------------|
B|----------------------|-------------|----/12-12-10----------------|
G|---9----11----(11)/13~|--ringing----|9-9-----------9-9----9-11-13~|
D|----------------------|-------------|------------------11---------|
A|----------------------|-------------|-----------------------------|
E|----------------------|-------------|-----------------------------|

e|----------------|----------------|----------------------------------|
B|----------------|----------------|----------------------------------|
G|----ringing-----|-13-14-13-------|-13-14-13-------------------------|
D|----------------|----------14-11~|----------14-11--14-(14)/16-14-13-|
A|----------------|----------------|----------------------------------|
E|----------------|----------------|----------------------------------|


Slow Break

Guitar 1 (effects)
e|---------------------------------------------------------------------|
B|---------------------------------------------------------------------|
G|-----9------9---9-------9------9---9------9------9------9-----9------|
D|11-11--11-11--11---11-11--11-11--11---------9------9------9-----9----|
A|-------------------------------------12-12----12-----12-----12----12-|
E|---------------------------------------------------------------------|

e|----------------------------------------------------------------------|
B|----------------------------------------------------------------------|
G|---9-----9-----9------9-----9----------9----9--9-------9-------9----9-|
D|-----9-----9-----9------9-----9----9-9--9-9--9---10-10---10-10---10---|
A|11----11-----11-----11----11----11------------------------------------|
E|----------------------------------------------------------------------|

Guitar 2 (strum)
e|-0-|-0-|-0-|-0-|-0-|
B|-x-|-0-|-0-|-x-|-x-|(played like chorus)
G|-6-|-2-|-x-|-4-|-5-|
D|-6-|-2-|-2-|-4-|-x-|
A|-4-|-0-|-2-|-2-|-3-|
E|---|---|-0-|---|---|

Guitar 3 gets feedback at end of Slow Break


Final Chorus

Guitar 1 and Guitar 2 keep repeating Chorus

Guitar 4 (violin 1)
e|----|----|----|----|
B|-14-|-17-|-12-|-13-|
G|--x-|--x-|--x-|--x-|
D|-11-|-15-|--9-|-10-|
A|----|----|----|----|
E|----|----|----|----|


Ending

Ring with this
Gtr.1 , 2,  7
e|---|---|----|
B|---|---|----|
G|-6-|-6-|-14-|
D|-x-|-6-|--x-|
A|-4-|-4-|-11-|
E|---|---|----|

Guitar 4 (violin)
e|-16~-----------------17--16~---------------------------------|
B|-----17~--14~---14-------------17~-----------12~---13~---14~-|
G|-------------------------------------------------------------|
D|-------------------------------------------------------------|
A|-------------------------------------------------------------|
E|-------------------------------------------------------------|

Guitar 5 (violin 2)
e|-------------------------------------------------------------|
B|-------------------------------------------------------------|
G|-------------------------------------------------------------|
D|---------------------------------------------13~---13~---11~-|
A|---------------------12--14~---11--14------------------------|
E|-9~--11-12-9~----9-------------------------------------------|

Thank you, John Valte for the great tab.
            
Submit corrections

comments powered by Disqus
↑ Back to top | Yellowcard Tabs for Only One. Lyrics for acoustic guitar and electric guitar. Tablatures and chords are parodies/interpretations of the original songs. You may use it for private study, scholarship, research or language learning purposes only