» » »

Yellowcard, One Year Six Months Tabs (ver.2)

Artists:  A B C D E F G H I J K L M N O P Q R S T U V W X Y Z # 

One Year Six Months Tabs (ver.2)

Yellowcard Tabs
 Rating:
4/5 (4 votes)
One Year Six Months lessons Tabs too difficult? Try these video lessons and learn fast
                Gtr.1 - Standard
Gtr.2 - Standard
Gtr.3 - Standard(Violin)
Gtr.4 - Standard
Gtr.5 - Standard
Gtr.6 - Standard(Violin)

Intro(figure out timing and strumming for both gtrs.)
Gtr.1
e|-----------------------------------------------------------------|
B|-15-15-x-13-x-12-x-10--10-10-10--10-10-10-10-13-13-x-12-x-10-x-8-|
G|--0--0-x--0-x--0-x--0---0--0--0---0--0--0--0--0--0-x--0-x--0-x-0-|
D|-----------------------------------------------------------------|
A|-----------------------------------------------------------------|
E|-----------------------------------------------------------------|
cont'd
e|-------------------------------------------------------------------|
B|--8-8-8--8-8-8-8/15-15-x-13-x-12-x-10-10-x-12-12-x-8-8-8-8-8-8-8-8-|
G|--0-0-0--0-0-0-0--0--0-x--0-x--0-x--0--0-x--0--0-x-0-0-0-0-0-0-0-0-|
D|-------------------------------------------------------------------|
A|-------------------------------------------------------------------|
E|-------------------------------------------------------------------|
cont'd
e|------------------|---|
B|-7-7-7-7-7-7-7-7/-|-8-|
G|-0-0-0-0-0-0-0-0--|-0-|
D|------------------|---|
A|------------------|---|
E|------------------|---|
Gtr.2(playing with Gtr.1)
e|-----------------------------------------------------------------|
B|-----------------------------------------------------------------|
G|-7-7-7-7-7-7-7-7-7-7-7-7-7-7-7-7-4-4-4-4-4-4-4-4-2-2-2-2-2-2-2-2-|
D|-5-5-5-5-5-5-5-5-4-4-4-4-4-4-4-4-2-2-2-2-2-2-2-2-0-0-0-0-0-0-0-0-|
A|-----------------------------------------------------------------|
E|-----------------------------------------------------------------|
cont'd
e|---------------------------------------------------------------|
B|---------------------------------------------------------------|
G|-------------------------------7-7-7-7-7-7-7-7-7-7-7-7-7-7-7-7-|
D|-5-5-5-5-5-5-5-5-x-5-5-x-5-5-x-5-5-5-5-5-5-5-5-4-4-4-4-4-4-4-4-|
A|-3-3-3-3-3-3-3-3-x-2-2-x-3-3-x-5-5-5-5-5-5-5-5-5-5-5-5-5-5-5-5-|
E|---------------------------------------------------------------|

Verse
Gtr.3
e|------------------------------------------------------------------|
B|-----3---------3-----3---------3-----3---------3------------------|
G|-----------0---------------0---------------0----------2-----0---2-|
D|-5-5---5-5---5---4-4---4-4---4---2-2---2-2---2----0-0---0-0---0---|
A|------------------------------------------------------------------|
E|------------------------------------------------------------------|
cont'd
e|--------------------------------|-----------------|-2nd---|
B|--------------------------------|-----------------|--time-|
G|-----0---------0-----0---------0|-----2-----0---2-|---2-0-|
D|-----------0---------------0----|-0-0---0-0---0---|-0-----|
A|-3-3---3-3---3---2-2---2-2---2--|-----------------|-hit a-|
E|--------------------------------|--this part 2x --|-bunch-|

Chorus
Gtr.2 (strumming pattern)
e|-----------------------------------------------------------------|
B|-----------------------------this part 2x then cont'd------------|
G|-0-0-0-0-0-0-0-0-0-0-0-0-0-0-0-0-0-0-0-0-0-0-0-0-0-0-0-0-0-0-0-0-|
D|-x-x-x-x-x-x-x-x-x-x-x-x-x-x-x-x-5-5-5-5-5-5-5-5-7-7-7-7-7-7-7-7-|
A|-2-2-2-2-2-2-2-2-5-5-5-5-5-5-5-5-3-3-3-3-3-3-3-3-5-5-5-5-5-5-5-5-|
E|-0-0-0-0-0-0-0-0-3-3-3-3-3-3-3-3---------------------------------|
cont'd
e|-----------------------------------------------------------------|
B|-----------------------------------------------------------------|
G|-0-0-0-0-0-0-0-0-0-0-0-0-0-0-0-0-0-0-0-0-0-0-0-0-0-0-0-0-0-0-0-0-|
D|-x-x-x-x-x-x-x-x-7-7-7-7-7-7-7-7-5-5-5-5-5-5-5-5-7-7-7-7-7-7-7-7-|
A|-2-2-2-2-2-2-2-2-5-5-5-5-5-5-5-5-3-3-3-3-3-3-3-3-5-5-5-5-5-5-5-5-|
E|-0-0-0-0-0-0-0-0-------------------------------------------------|
cont'd
e|-----------------------------------------------------------------|
B|-----------------------------------------------------------------|
G|-0-0-0-0-0-0-0-0-0-0-0-0-0-0-0-0-0-0-0-0-0-0-0-0-0-0-0-0-0-0-0-0-|
D|-x-x-x-x-x-x-x-x-x-x-x-x-x-x-x-x-5-5-5-5-5-5-5-5-7-7-7-7-7-7-7-7-|
A|-2-2-2-2-2-2-2-2-5-5-5-5-5-5-5-5-3-3-3-3-3-3-3-3-5-5-5-5-5-5-5-5-|
E|-0-0-0-0-0-0-0-0-3-3-3-3-3-3-3-3---------------------------------|
Gtr.1(plays with Gtr.2)(figure out timing and strumming)
e|-------------------------------------------------------------------|
B|-8-8-8-8-8-8-8-8-8-10-10-10-10-10-10-10-10/13-13-13-13-13-13-13-13-|
G|-0-0-0-0-0-0-0-0-0--0--0--0--0--0--0--0--0--0--0--0--0--0--0--0--0-|
D|-------------------------------------------------------------------|
A|-------------------------------------------------------------------|
E|-------------------------------------------------------------------|
cont'd
e|-------------------------|-----------------|-----------------|
B|\10-10-10-10-10-10-10-10-|-8-8-8-8-8-8-8-8-|\7-7-7-7-7-7-7-7-|
G|--0--0--0--0--0--0--0--0-|-0-0-0-0-0-0-0-0-|-0-0-0-0-0-0-0-0-|
D|-------------------------|-do this part 3x |-----------------|
A|-------------------------|------then next--|-----------------|
E|-------------------------|-----------------|-----------------|

Play Intro

Play Verse
Violin comes in
Gtr.3
e|----|-----|-------------|--------------|----|-----|
B|----|-----|-------------|--------------|----|-----|
G|-11-|-12~-|--11/12------|--11/12-------|----|-----|
D|--x-|--x--|---x--x--12~-|---x--x---10~-|-9~-|--12-|
A|--9-|-10~-|---9/10---x--|---9/10----x--|-x--|---x-|
E|----|-----|---------10~-|-----------8~-|-7~-|--10-|
this comes in(hit a bunch
Gtr.4
e|--------|
B|-----15-|
G|-0-0----|
D|--------|
A|--------|
E|--------|

Play Chorus with this
Gtr.3
e|--------------------------------------------------------------|
B|--------------------------------------------------------------|
G|-12------------11-------------------12-----14-------12---11---|
D|------12----12------12----12-----12----12------12----------12-|
A|---------10------------12-----14------------------------------|
E|--------------------------------------------------------------|
cont'd
e|-------------------------------------------------------------------|----|
B|-------------------------------------------------------------------|----|
G|-12----------------12--------9--------11------12--------14---12-11-|-12-|
D|----12----12----12----12---------12------12-------12---------------|----|
A|-------10----14----------------------------------------------------|----|
E|-------------------------------------------------------------------|----|

Gtr.1 only play intro


Bridge
Gtr.1
e|------------------------------------------------------------------------|
B|-15-15-x-13-x-12-x-10--1010101010101012-1212121212121210-10101010101010-|
G|--0--0-x--0-x--0-x--0---0-0-0-0-0-0-0-0--0-0-0-0-0-0-0-0--0-0-0-0-0-0-0-|
D|------------------------------------------------------------------------|
A|------------------------------------------------------------------------|
E|------------------------------------------------------------------------|
Gtr.5 comes in...(pattern with Gtr.1 too)
e|------------------------------------------------------------------------|
B|------------------------------------------------------------------------|
G|--0--0-x--0-x--0-x--0---0-0-0-0-0-0-0-0--0-0-0-0-0-0-0-0--0-0-0-0-0-0-0-|
D|-16-16-x-14-x-12-x-11--1111111111111112-1212121212121211-11111111111111-|
A|------------------------------------------------------------------------|
E|------------------------------------------------------------------------|
cont'd Gtr.1
e|-----------------------------------------------------------------|
B|-15-15-x-13-x-12-x-10--10-10-10--10-10-10-10-13-13-x-12-x-10-x-8-|
G|--0--0-x--0-x--0-x--0---0--0--0---0--0--0--0--0--0-x--0-x--0-x-0-|
D|-----------------------------------------------------------------|
A|-----------------------------------------------------------------|
E|-----------------------------------------------------------------|
Gtr.5
e|-----------------------------------------------------------------|
B|-----------------------------------------------------------------|
G|--0--0-x--0-x--0-x--0---0--0--0---0--0--0--0--0--0-x--0-x--0-x-0-|
D|-16-16-x-14-x-12-x-11--11-11-11--11-11-11-11-14-14-x-12-x-11-x-9-|
A|-----------------------------------------------------------------|
E|-----------------------------------------------------------------|
cont'd
e|-----------------|
B|--8-8-8--8-8-8-8/|
G|--0-0-0--0-0-0-0-|
D|-----------------|
A|-----------------|
E|-----------------|
Gtr.5
e|-----------------|
B|-----------------|
G|--0-0-0--0-0-0-0-|
D|--9-9-9--9-9-9-9/|
A|-----------------|
E|-----------------|
cont'd
Gtr.1
e|------------------------------------------------------------------------|
B|-15-15-x-13-x-12-x-10--1010101010101012-1212121212121210-10101010101010-|
G|--0--0-x--0-x--0-x--0---0-0-0-0-0-0-0-0--0-0-0-0-0-0-0-0--0-0-0-0-0-0-0-|
D|------------------------------------------------------------------------|
A|------------------------------------------------------------------------|
E|------------------------------------------------------------------------|
Gtr.5
e|------------------------------------------------------------------------|
B|------------------------------------------------------------------------|
G|--0--0-x--0-x--0-x--0---0-0-0-0-0-0-0-0--0-0-0-0-0-0-0-0--0-0-0-0-0-0-0-|
D|-16-16-x-14-x-12-x-11--1111111111111112-1212121212121211-11111111111111-|
A|------------------------------------------------------------------------|
E|------------------------------------------------------------------------|

Gtr.2(strumming pattern)(comes in some time)(play with Gtrs.1 and 5)
e|---|---|---|---|---|
B|---|---|---|---|---|
G|-0-|-0-|-0-|-0-|-0-|
D|-x-|-7-|-5-|-x-|-x-|
A|-5-|-5-|-3-|-2-|-5-|
E|-3-|---|---|-0-|-3-|
cont'd
e|---|---|---|---|
B|---|---|---|---|
G|-0-|-0-|-0-|-0-|
D|-x-|-7-|-5-|-7-|
A|-5-|-5-|-3-|-5-|
E|-3-|---|---|---|
Gtr.6 (comes in after Gtr.2 plays for 2nd time)
e|--------------------------------------------------------|
B|------12-15--15-15-x-13-x-12-x-10--10-12-10----10-12-15-|
G|-12-14--------------------------------------12----------|
D|--------------------------------------------------------|
A|--------------------------------------------------------|
E|--------------------------------------------------------|
cont'd
e|---------------------------------------------------------------------------|
B|13-13-x-12-x-10-x-8--8-10-8-7-8-10-12-15-15-x-13-x-12-x-10--10101010101010-|
G|---------------------------------------------------------------------------|
D|---------------------------------------------------------------------------|
A|---------------------------------------------------------------------------|
E|---------------------------------------------------------------------------|
cont'd
e|-----------------------------------|
B|-1212121212121212-1010101010101010-|
G|-----------------------------------|
D|-----------------------------------|
A|-----------------------------------|
E|-----------------------------------|

this comes in(hit a bunch
Gtr.4
e|--------|-----|
B|-----15-|--15-|
G|-0-0----|-0---|
D|--------|-----|
A|--------|-----|
E|--------|-----|
Gtr.3(timing)
e|----------------------------------------------------------|
B|----------------------------------------------------------|
G|----------------------------------------------------------|
D|-------12~---14~----12~---------------------12~----14--16-|
A|-10~----------------------14-12-14-15-14~-----------------|
E|----------------------------------------------------------|
cont'd
e|-----------------------------------------------------------------12-14-15-|
B|------15~----17~---15~---12----12-13-12~-----------------12-13-15---------|
G|-12~------------------------14--------------12~-----12-14-----------------|
D|--------------------------------------------------------------------------|
A|--------------------------------------------------------------------------|
E|--------------------------------------------------------------------------|
Gtr.2(figure out strumming and timing)
e|-----------------------------------------------------------------|
B|-----------------------------------------------------------------|
G|-0-0-0-0-0-0-0-0-0-0-0-0-0-0-0-0-0-0-0-0-0-0-0-0-0-0-0-0-0-0-0-0-|
D|-x-x-x-x-x-x-x-x-7-7-7-7-7-7-7-7-5-5-5-5-5-5-5-5-7-7-7-7-7-7-7-7-|
A|-2-2-2-2-2-2-2-2-5-5-5-5-5-5-5-5-3-3-3-3-3-3-3-3-5-5-5-5-5-5-5-5-|
E|-0-0-0-0-0-0-0-0-------------------------------------------------|
cont'd
e|-----------------------------------------------------------------|
B|-----------------------------------------------------------------|
G|-0-0-0-0-0-0-0-0-0-0-0-0-0-0-0-0-0-0-0-0-0-0-0-0-0-0-0-0-0-0-0-0-|
D|-x-x-x-x-x-x-x-x-x-x-x-x-x-x-x-x-5-5-5-5-5-5-5-5-7-7-7-7-7-7-7-7-|
A|-2-2-2-2-2-2-2-2-5-5-5-5-5-5-5-5-3-3-3-3-3-3-3-3-5-5-5-5-5-5-5-5-|
E|-0-0-0-0-0-0-0-0-3-3-3-3-3-3-3-3---------------------------------|

Play Chorus with everything(Gtr. 1 plays intro variation with Gtr.5)
Gtr.6 (comes in)
e|--------------------------------------------------------|
B|------12-15--15-15-x-13-x-12-x-10--10-12-10----10-12-15-|
G|-12-14--------------------------------------12----------|
D|--------------------------------------------------------|
A|--------------------------------------------------------|
E|--------------------------------------------------------|
cont'd
e|---------------------------------------------------------------------------|
B|13-13-x-12-x-10-x-8--8-10-8-7-8-10-12-15-15-x-13-x-12-x-10--10101010101010-|
G|---------------------------------------------------------------------------|
D|---------------------------------------------------------------------------|
A|---------------------------------------------------------------------------|
E|---------------------------------------------------------------------------|
cont'd
e|-----------------------------------|
B|-1212121212121212-1010101010101010-|
G|-----------------------------------|
D|-----------------------------------|
A|-----------------------------------|
E|-----------------------------------|

End with Gtr.2(strumming pattern)
e|-----------------------------------------------------------------|
B|-----------------------------------------------------------------|
G|-7-7-7-7-7-7-7-7-7-7-7-7-7-7-7-7-4-4-4-4-4-4-4-4-2-2-2-2-2-2-2-2-|
D|-5-5-5-5-5-5-5-5-4-4-4-4-4-4-4-4-2-2-2-2-2-2-2-2-0-0-0-0-0-0-0-0-|
A|-----------------------------------------------------------------|
E|-----------------------------------------------------------------|
cont'd
e|-----------------------------------|
B|-----------------------------------|
G|---------------------------------7~|
D|-5-5-5-5-5-5-5-5-5-5-5-5-5-5-5-5-5~|
A|-3-3-3-3-3-3-3-3-2-2-2-2-2-2-2-2-5~|
E|-----------------------------------|


Done, finally..I've only played for a year and I'm 14 so it wont be perfect
It'll be the best you find though..if you find anything else...unless
its from Yellowcard themselves of course...Comments, Requests, Questions,
            
Submit corrections

comments powered by Disqus
↑ Back to top | Yellowcard Tabs for One Year Six Months. Lyrics for acoustic guitar and electric guitar. Tablatures and chords are parodies/interpretations of the original songs. You may use it for private study, scholarship, research or language learning purposes only