>
 >
Miles Apart

Miles Apart Guitar Tabs

Yellowcard - Miles Apart chords, tabs, tablatures, lyrics

Guitar lessons | Add/correct | Request | Top 50 tabs Artists:  A B C D E F G H I J K L M N O P Q R S T U V W X Y Z 0-9

Miles Apart Guitar Tabs – Yellowcard

CD, Sheet music, Poster

Do you like Miles Apart? Share with your friends now
Bass TabsChordsChords v2TabsTabs v2Ukulele
Tuning: (DADGBE)           

Guitar 1
-----------
Intro:
e|---------------------------------------------------------------------------|
B|---------------------------------------------------------------------------|
G|---------------------------------------------------------------------------|
D|-0-0--x-x-x-x--0-0--0-0--5-5--x-x-x-x--5-5--5-5----------------------------|
A|-0-0--x-x-x-x--0-0--0-0--5-5--x-x-x-x--5-5--5-5----------------------------|
D|-0-0--x-x-x-x--0-0--0-0--5-5--x-x-x-x--5-5--5-5----------------------------|
                      . .                     . .

e|---------------------------------------------------------------------------|
B|---------------------------------------------------------------------------|
G|---------------------------------------------------------------------------|
D|-9-9--x-x-x-x--9-9--9-9--5-5--x-x-x-x--5-5--5-5----------------------------|
A|-9-9--x-x-x-x--9-9--9-9--5-5--x-x-x-x--5-5--5-5----------------------------|
D|-9-9--x-x-x-x--9-9--9-9--5-5--x-x-x-x--5-5--5-5----------------------------|
                      . .                     . .

Intro Cont'd:
e|---------------------------------------------------------------------------|
B|---------------------------------------------------------------------------|
G|---------------------------------------------------------------------------|
D|-0-0-0-0-0-0-0-0-0-0-0-0-0-0-0-0--5-5-5-5-5-5-5-5-5-5-5-5-5-5-5-5----------|
A|-0-0-0-0-0-0-0-0-0-0-0-0-0-0-0-0--5-5-5-5-5-5-5-5-5-5-5-5-5-5-5-5----------|
D|-0-0-0-0-0-0-0-0-0-0-0-0-0-0-0-0--5-5-5-5-5-5-5-5-5-5-5-5-5-5-5-5----------|

e|---------------------------------------------------------------------------|
B|---------------------------------------------------------------------------|
G|---------------------------------------------------------------------------|
D|-9-9-9-9-9-9-9-9-9-9-9-9-9-9-9-9--5-5-5-5-5-5-5-5-5-5-5-5-5-5-5-5----------|
A|-9-9-9-9-9-9-9-9-9-9-9-9-9-9-9-9--5-5-5-5-5-5-5-5-5-5-5-5-5-5-5-5----------|
D|-9-9-9-9-9-9-9-9-9-9-9-9-9-9-9-9--5-5-5-5-5-5-5-5-5-5-5-5-5-5-5-5----------|


Verse: "If I could i would do.."
e|---------------------------------------------------------------------------|
B|---------------------------------------------------------------------------|
G|---------------------------------------------------------------------------|
D|-7-7-7-7-7-7-7-7-7-7-7-7-7-7-7-7--5-5-5-5-5-5-5-5-5-5-5-5-5-5-5-5----------|
A|-5-5-5-5-5-5-5-5-5-5-5-5-5-5-5-5--3-3-3-3-3-3-3-3-3-3-3-3-3-3-3-3----------|
D|---------------------------------------------------------------------------|
   . . . . . . . . . . . . . . . .  . . . . . . . . . . . . . . . . 


Verse Cont'd: "Travel back in time with you..." 
e|---------------------------------------------------------------------------|  
B|---------------------------------------------------------------------------|
G|---------------------------------------------------------------------------|
D|---------------------------------------------------------------------------|
A|-2-2-2-2-2-2-2-2-2-2-2-2-2-2-2-2--5-5-5-5-5-5-5-5-5-5-5-5-5-5-5-5----------|
D|-2-2-2-2-2-2-2-2-2-2-2-2-2-2-2-2--5-5-5-5-5-5-5-5-5-5-5-5-5-5-5-5----------|
   . . . . . . . . . . . . . . . .  . . . . . . . . . . . . . . . .
 

Repeat Verse



Chorus: "We'll be miles apart..."
e|---------------------------------------------------------------------------| X3
B|---------------------------------------------------------------------------|
G|---------------------------------------------------------------------------|
D|-0-0-0-0-0-0-0-0-0-0-0-0-0-0-0-0--5-5-5-5-5-5-5-5-5-5-5-5-5-5-5-5----------|
A|-0-0-0-0-0-0-0-0-0-0-0-0-0-0-0-0--5-5-5-5-5-5-5-5-5-5-5-5-5-5-5-5----------|
D|-0-0-0-0-0-0-0-0-0-0-0-0-0-0-0-0--5-5-5-5-5-5-5-5-5-5-5-5-5-5-5-5----------|


Chorus Cont'd: "Always in my heart.."
e|---------------------------------------------------------------------------|
B|---------------------------------------------------------------------------|
G|---------------------------------------------------------------------------|
D|-9-9-9-9--7-7-7-7--5-5-5-5-------------------------------------------------|
A|-9-9-9-9--7-7-7-7--5-5-5-5-------------------------------------------------|
D|-9-9-9-9--7-7-7-7--5-5-5-5-------------------------------------------------|


Verse: "Now we've all grown up..."
e|---------------------------------------------------------------------------|
B|---------------------------------------------------------------------------|
G|-----7-----7-----7-----7------5-----5-----5-----5--------------------------|
D|-7-7-7-7-7-7-7-7-7-7-7-7--5-5-5-5-5-5-5-5-5-5-5-5--------------------------|
A|-5-5-5-5-5-5-5-5-5-5-5-5--3-3-3-3-3-3-3-3-3-3-3-3--------------------------|
D|---------------------------------------------------------------------------|
   . .   . .   . .   . .    . .   . .   . .   . .   


Verse Cont'd: "Nothing I can do about it..."
e|---------------------------------------------------------------------------|  
B|---------------------------------------------------------------------------|
G|---------------------------------------------------------------------------|
D|-----2-----2-----2-----2------5-----5-----5---5-5-5------------------------|
A|-2-2-2-2-2-2-2-2-2-2-2-2--5-5-5-5-5-5-5-5-5-5-5-5-5------------------------| 
D|-2-2-2-2-2-2-2-2-2-2-2-2--5-5-5-5-5-5-5-5-5-5-5-5-5------------------------|
   . .   . .   . .   . .    . .   . .   . .   .    


Repeat Verse without palm muting


Pre-Chorus:
e|---------------------------------------------------------------------------|
B|---------------------------------------------------------------------------|
G|---------------------------------------------------------------------------|
D|-0-0--x-x-x-x--0-0-x-x-x-x--0-0-x-x-x-x--0---------------------------------|
A|-0-0--x-x-x-x--0-0-x-x-x-x--0-0-x-x-x-x--0---------------------------------|
D|-0-0--x-x-x-x--0-0-x-x-x-x--0-0-x-x-x-x--0---------------------------------|
                       

Repeat Chorus


Bridge:
e|---------------------------------------------------------------------------|
B|---------------------------------------------------------------------------|
G|-------------------------------------9-------9-------9-----9---------------|
D|-----7-------7-------7-------7-------x-------x-------x-----x---------------|
A|-5-5-5-5-5-5-5-5-5-5-5-5-5-5-5-5/7-7-7-7-7-7-7-7-7-7-7-7-7-7---------------|
D|---------------------------------------------------------------------------|
                    
e|---------------------------------------------------------------------------|
B|---------------------------------------------------------------------------|
G|---------------------------------------------------------------------------|
D|-------12----------12----------11----------12------------------------------|
A|-10-10-10-10-10-10-10-10-10-10-10-10-10-10-10------------------------------|
D|---------------------------------------------------------------------------|

e|---------------------------------------------------------------------------|
B|---------------------------------------------------------------------------|
G|---------------------------------------------------------------------------|
D|-----7-------7-------7------5-5-5------------------------------------------|
A|-5-5-5-5-5-5-5-5-5-5-5-5-5--5-5-5------------------------------------------|
D|----------------------------5-5-5------------------------------------------|


Bridge Cont'd: "Give it up for just one..."
e|---------------------------------------------------------------------------| 
B|---------------------------------------------------------------------------|
G|---------------------------------------------------------------------------|
D|-0-0-0-0-0-0-0-0-0-0-0-0-0-0-0-0--2-2-2-2-2-2-2-2-2-2-2-2-2-2-2-2----------|
A|-0-0-0-0-0-0-0-0-0-0-0-0-0-0-0-0--2-2-2-2-2-2-2-2-2-2-2-2-2-2-2-2----------|
D|-0-0-0-0-0-0-0-0-0-0-0-0-0-0-0-0--2-2-2-2-2-2-2-2-2-2-2-2-2-2-2-2----------|

e|---------------------------------------------------------------------------| 
B|---------------------------------------------------------------------------|
G|---------------------------------------------------------------------------|
D|-5-5-5-5-5-5-5-5-5-5-5-5-5-5-5-5--0-0-0-0-0-0-0-0-0-0-0-0-0-0-0-0----------|
A|-5-5-5-5-5-5-5-5-5-5-5-5-5-5-5-5--0-0-0-0-0-0-0-0-0-0-0-0-0-0-0-0----------|
D|-5-5-5-5-5-5-5-5-5-5-5-5-5-5-5-5--0-0-0-0-0-0-0-0-0-0-0-0-0-0-0-0----------|


Theres no guitar 1 for this part


Repeat chorus until the song ends






GUITAR 2
-----------

Intro: (on the twentieth time play the last part on the tab)
e|---------------------------------------------------------------------------|X20
B|---------------------------------------------------------------------------|
G|-11--11--11--9--9--9--7--7-------------7/9\7/9\7/9\7/9---------------------|
D|-x---x---x---x--x--x--x--x-------------x-x-x-x-x-x-x-x---------------------|
A|-9---9---9---7--7--7--5--5-------------5/7\5/7\5/7\5/7---------------------|
D|---------------------------------------------------------------------------|


Guitar 3 (on the 12th time of the intro a 3rd guitar plays this)
e|---------------------------------------------------------------------------|X8
B|---------------------------------------------------------------------------|
G|-14--14--14---12--12--12---11-11-------------------------------------------|
D|-x---x---x----x---x---x----x--x-------(Do-the-same-thing-as-the-first------|
A|-12--12--12---10--10--10---9--9--------guitar-with-the-sliding-except------|
D|---------------------------------------with-the-last-two-chords-on-the-tab)|


Verse: "...All of this again..."
e|-14--10--15--14--10---14--10--15--14--10---14--10------14--10--------------|
B|---------------------------------------------------10----------------------|
G|---------------------------------------------------------------------------|
D|---------------------------------------------------------------------------|
A|---------------------------------------------------------------------------|
D|---------------------------------------------------------------------------|
  .    .   .   .   .    .    .   .  .    .   .   .   .   .   .

Verse Cont'd: "We could hide inside ourselves..."
e|-14--10--15--14-10-10--14--10--15--14-10-10--14--10-15--14--10-10-14-10----|
B|------------------------------------------------------------------------10-|
G|---------------------------------------------------------------------------|
D|---------------------------------------------------------------------------|
A|---------------------------------------------------------------------------|
D|---------------------------------------------------------------------------|
   .   .   .   .  .  .   .   .   .    .  . .   .    . .   .   .  .   .  . .
Pre-Chorus:
e|---------------------------------------------------------------------------|
B|---------------------------------------------------------------------------|
G|-11--11--11--9--9--9--7--7-------------------------------------------------|
D|-x---x---x---x--x--x--x--x-------------------------------------------------|
A|-9---9---9---7--7--7--5--5-------------------------------------------------|
D|---------------------------------------------------------------------------|


Chorus: "We'll be miles apart..."
e|---------------------------------------------------------------------------|
B|---------------------------------------------------------------------------|
G|-14-14-14-14-14-14-14--11-11-11-11-11-11-11-11-----------------------------|
D|-x--x--x--x--x--x--x---x--x--x--x--x--x--x--x------------------------------|
A|-12-12-12-12-12-12-12--9--9--9--9--9--9--9--9------------------------------|
D|---------------------------------------------------------------------------|


Chorus Cont'd: "I'll keep you deep inside..."
e|---------------------------------------------------------------------------| 
B|---------------------------------------------------------------------------|
G|-4-4-4-4-4-4-4-4--7-7-7-7-7-7-7-7------------------------------------------|
D|-x-x-x-x-x-x-x-x--x-x-x-x-x-x-x-x------------------------------------------|
A|-2-2-2-2-2-2-2-2--5-5-5-5-5-5-5-5------------------------------------------|
D|---------------------------------------------------------------------------|


Chorus Cont'd: "Your always in my heart..."
e|---------------------------------------------------------------------------| 
B|---------------------------------------------------------------------------|
G|-14-14-11-11-11-11-11-11-12-12-12-12-12-12-12------------------------------|
D|-x--x--x--x--x--x--x--x--x--x--x--x--x--x--x-------------------------------|
A|-12-12-9--9--9--9--9--9--10-10-10-10-10-10-10------------------------------|
D|---------------------------------------------------------------------------|


Repeat the Chorus all the way up until he sings "Your always in my heart" again 

Ending of Chorus: "Always in my heart..."
e|---------------------------------------------------------------------------|
B|---------------------------------------------------------------------------|
G|-11-11-11-11-11-11-9-9-9-9-9-9-7-7-7-7-7-7---------------------------------|
D|-x--x--x--x--x--x--x-x-x-x-x-x-x-x-x-x-x-x---------------------------------|
A|-9--9--9--9--9--9--7-7-7-7-7-7-5-5-5-5-5-5---------------------------------|
D|---------------------------------------------------------------------------|


Verse: "Now we've all grown up..."
e|-14--10--15--14--10---14--10--15--14--10---14--10------14--10--------------|
B|---------------------------------------------------10----------------------|
G|---------------------------------------------------------------------------|
D|---------------------------------------------------------------------------|
A|---------------------------------------------------------------------------|
D|---------------------------------------------------------------------------|
  .    .   .   .   .    .    .   .  .    .   .   .   .   .   .


Guitar 2 Repeats that


Guitar 3: "To bring us back to where..."
e|---------------------------------------------------------------------------|
B|---------------------------------------------------------------------------|
G|-14--14--14--14--14--14--14--14--14--12--12--12--12--12--12--12--12-12--12-|
D|-x---x---x---x---x---x---x---x---x---x---x---x---x---x---x---x---x--x---x--|
A|-12--12--12--12--12--12--12--12--12--10--10--10--10--10--10--10--10-10--10-|
D|---------------------------------------------------------------------------|


Repeat the pre-chorus until the last time then do this
e|---------------------------------------------------------------------------|
B|---------------------------------------------------------------------------|
G|-14--14--14---12--12--12---11-11-------------------------------------------|
D|-x---x---x----x---x---x----x--x--------------------------------------------|
A|-12--12--12---10--10--10---9--9--------------------------------------------|
D|---------------------------------------------------------------------------|


Repeat Chorus


Bridge: (no guitar 2)


Bridge Cont'd: "Give it up for just one more..." (kinda hard to hear)
e|---------------------------------------------------------------------------| X2
B|---------------------------------------------------------------------------|
G|-14-14-14-14-13-13-13-13-4-4-4-4-6-6-6-6-7-7-7-7-6-6-6-6-7-7-7-7-----------|
D|-x--x--x--x--x--x--x--x--x-x-x-x-x-x-x-x-x-x-x-x-x-x-x-x-x-x-x-x-----------|
A|-12-12-12-12-11-11-11-11-2-2-2-2-4-4-4-4-5-5-5-5-4-4-4-4-5-5-5-5-----------|
D|---------------------------------------------------------------------------|


Bridge Cont'd "Give it up for..."
e|-----5-----5---5-----3-----3---3-----2-----2----2-----0-----0-----0--------|
B|-3-3---3-3---3---3-3---3-3---3---3-3---3-3----3---3-3---3-3---3-3----------|
G|---------------------------------------------------------------------------|
D|---------------------------------------------------------------------------|
A|---------------------------------------------------------------------------|
D|---------------------------------------------------------------------------|

e|-----3-----3---3-----0-----0---0-------------------------------------------|
B|-3-3---3-3---3---3-3---3-3---3----3~---------------------------------------|
G|---------------------------------------------------------------------------|
D|---------------------------------------------------------------------------|
A|---------------------------------------------------------------------------|
D|---------------------------------------------------------------------------|


End with the Chorus




Thats it. Enjoy. I'm sure I made some mistakes so for requests, comments, whining,





Comments


Popular Yellowcard tabs & chords
Back Home Bass Tabs
The Sound Of You And Me Bass Tabs
Twenty Three Bass Tabs
Fighting Chords
Words Hands Hearts Chords
Avondale (Acoustic) Tabs
Light Up The Sky 4 Tabs
Three Flights Up Tabs
Inside Out Ukulele
Lights And Sounds Ukulele


Song lyrics



↑ Back to top | Tablatures and chords are parodies/interpretations of the original songs. You may use it for private study, scholarship, research or language learning purposes only
© 2014 AZChords.com Contact us | Privacy policy | DMCA | Add/correct tabs | Request tabs | Top 50 tabs