>
 >
Inside Out 1

Inside Out 1 Guitar Tabs

Yellowcard - Inside Out 1 chords, tabs, tablatures, lyrics

Guitar lessons | Add/correct | Request | Top 50 tabs Artists:  A B C D E F G H I J K L M N O P Q R S T U V W X Y Z 0-9

Inside Out 1 Guitar Tabs – Yellowcard

CD, Sheet music, Poster

Do you like Inside Out 1? Share with your friends now
ChordsChords v2TabsTabs v2Ukulele
-----------------------------------------------------------------------
                             Inside Out- Yellowcard
-----------------------------------------------------------------------


In Drop D tuning

Guitar 1
Intro
        Played 2x     
e|---------------------|----------------------|-----------------------|
B|---------------------|----------------------|-----------------------|
G|---77-7777-77-7777---|----------------------|--44-44444-44-44444----|
D|---77-7777-77-7777---|--22-22222-22-22222---|--44-44444-44-44444----|
A|---55-5555-55-5555---|--22-22222-22-22222---|--22-22222-22-22222----|
D|---------------------|--22-22222-22-22222---|-----------------------|

e|---------------------|--10x3-|
B|---------------------|-------|
G|---------------------|-------|
D|---55-55555-55-55555-|-------|
A|---55-55555-55-55555-|-------|
D|---55-55555-55-55555-|-------|

Verse 1st part
No Guitar

Verse 2nd part 
e|--------------------------------------------------------------------|
B|--------------------------------------------------------------------|
G|--77--7776677-7776677-x4---77---------------------------------------|
D|--77--7777777-7777777-x4---77---------------------------------------|
A|--55--5555555-5555555-x4---55---------------------------------------|
D|--------------------------------------------------------------------|

Chorus 
e|--------------------------------------------------------------------|
B|--------------------------------------------------------------------|
G|--------------66--44------------------------------------------------|
D|-000--55--00--66--44--22--55--00-00--2222--4444--5555--7777---------|
A|-000--55--00--44--22--22--55--00-00--2222--4444--5555--7777---------|
D|-000--55--00----------22--55--00-00--2222--4444--5555--7777---------|
             *let ring       *

Verse 
e|--------------------------------------------------------------------|
B|--------------------------------------------------------------------|
G|--77--7776677-7776677-x4---77---------------------------------------|
D|--77--7777777-7777777-x4---77---------------------------------------|
A|--55--5555555-5555555-x4---55---------------------------------------|
D|--------------------------------------------------------------------|






Interlude
(distortion)

e|--------------------------------------------------------------------|
B|--------------------------------------------------------------------|
G|--4------2------7---------------------------------------------------|
D|--4-x14--2-x14--7-x14--5--------------------------------------------|
A|--2------0------5------5-x14----------------------------------------|
D|-----------------------5--------------------------------------------|

Chorus   (2x)
e|-----|--------------------------------------------------------------|
B|-----|--------------------------------------------------------------|
G|-----|---------66--44-----------------------------------------------|
D|-000-|-55--00--66--44--22--55--00-00--2222--4444--5555--7777--------|
A|-000-|-55--00--44--22--22--55--00-00--2222--4444--5555--7777--------|
D|-000-|-55--00----------22--55--00-00--2222--4444--5555--7777--------|
               *let ring       *

Bridge 1st part 
No guitar 

Bridge 2nd part 
e|---------------------------|----------------------------------------|
B|---------------------------|----------------------------------------|
G|--77777-77777-44444--------|--77777-77777-44444---------------------|
D|--77777-77777-44444-55555--|--77777-77777-44444-5555----------------|
A|--55555-55555-22222-55555--|--55555-55555-22222-5555----------------|
D|--------------------55555--|--------------------5555----------------|


Chorus   (3x)
       |-Played Softly 1st time-||--Distortion----
e|-----|--------------------------------------------------------------|
B|-----|--------------------------------------------------------------|
G|-----|---------66--44-----------------------------------------------|
D|-000-|-55--00--66--44--22--55---00-00--2222--4444--5555--7777-------|
A|-000-|-55--00--44--22--22--55---00-00--2222--4444--5555--7777-------|
D|-000-|-55--00----------22--55---00-00--2222--4444--5555--7777-------|
              *let ring       *

Outro 
        Played 2x     
e|---------------------|----------------------|-----------------------|
B|---------------------|----------------------|-----------------------|
G|---77-7777-77-7777---|----------------------|--44-44444-44-44444----|
D|---77-7777-77-7777---|--22-22222-22-22222---|--44-44444-44-44444----|
A|---55-5555-55-5555---|--22-22222-22-22222---|--22-22222-22-22222----|
D|---------------------|--22-22222-22-22222---|-----------------------|

e|---------------------|------------|
B|---------------------|------------|
G|---------------------|--------77--|
D|---55-55555-55-55555-|-000-55-77--|
A|---55-55555-55-55555-|-000-55-55--|
D|---55-55555-55-55555-|-000-55-----|
=======================================================================





Comments


Popular Yellowcard tabs & chords
Five Becomes Four Chords
Hide Chords
One Year Six Months 2 Chords
Sing For Me 1 Chords
Space Travel Chords
Only One 8 Tabs
Rock Star Land (Intro) Tabs
Violins Tabs
Words Hands Hearts Intro Tabs
Waiting Game Ukulele


Song lyrics



↑ Back to top | Tablatures and chords are parodies/interpretations of the original songs. You may use it for private study, scholarship, research or language learning purposes only
© 2014 AZChords.com Contact us | Privacy policy | DMCA | Add/correct tabs | Request tabs | Top 50 tabs