» » »

Yellowcard, Holly Wood Died Tabs (ver.1)

Artists:  A B C D E F G H I J K L M N O P Q R S T U V W X Y Z # 

Holly Wood Died Tabs (ver.1)

Yellowcard Tabs
Rating:
0/5 (0 votes)
Holly Wood Died lessons Tabs too difficult? Try these video lessons and learn fast
                Yellowcard
Standard tuning
3 guitars (one is violin, but in this song you can play it on a guitar)
listen very carefully to hear all 3 guitar parts (trust me they're in there)

Verse 1
Guitar 1
|---------------------------------------------------------------|
|---------------------------------------------------------------|
|---------------------------------------------------------------|
|---------------------------------------------------------------|
|-4444444444444444----------------------------------------------|
|------------------5555555555555-22222222-44444444-555555555555-|
  **************** ************* ******** ******** ************
|---------------------------------------------------------------|
|---------------------------------------------------------------|
|---------------------------------------------------------------|
|---------------------------------------------------------------|
|-4444444444444444----------------------------------------------|
|------------------0000000000000-22222222-44444444-555555555555-|
  **************** ************* ******** ******** ******
Guitar 1 repeats                 |play twice before chorus.....|
Guitar 2 (play this over and over again, its soft in the background)
|-------------|
|-------------|
|---------4---|
|-------2-----|
|-----4-------|
|-------------|
Guitar 3 (listen for timing for when this guitar comes in shortly after guitar 2)may be 
in there somewhere
|-----------------------12~------------1212121212----------|
|------------1212121212-------------------------1212121212-|
|---99999999------------------14141414---------------------|
|----------------------------------------------------------|
|----------------------------------------------------------|
|----------------------------------------------------------|
                              [play 11 not 1]
|-----------------------------111111111--------------------|
|---12121212-1414141414141414------------------------------|
|----------------------------------------------------------|
|----------------------------------------------------------|
|----------------------------------------------------------|
|----------------------------------------------------------|

Chorus
Guitar 1 x2
|--------------------------------------------------------------------|
|--------------------------------------------------------------------|
|--66666666666666666-------------------------------------------------|
|--66666666666666666-77777777777777-99999999999999-7777777777777777--|
|--44444444444444444-77777777777777-99999999999999-7777777777777777--|
|--------------------55555555555555-77777777777777-5555555555555555--|

Guitar 2 x2
|--------------------------------------------------------------------|
|--------------------------------------------------------------------|
|--99999999999999999999999999999999-88888888888888-9999999999999999--|
|--xxxxxxxxxxxxxxxxxxxxxxxxxxxxxxxx-xxxxxxxxxxxxxx-xxxxxxxxxxxxxxxx--|
|--77777777777777777777777777777777-66666666666666-7777777777777777--|
|--------------------------------------------------------------------|

Guitar 3 x4
|--------------------------16-16-------------------------------------|
|--------------------16-16------17-17-16-16-17-17--------------------|
|--------16-16-14-14-------------------------------------------------|
|--14-14-------------------------------------------------------------|
|--------------------------------------------------------------------|
|--------------------------------------------------------------------|

Verse 2
Guitar 1 plays Verse 1 once
Guitar 2 plays Verse 1 once
Guitar 3
|--------------------12~----------12121212----------------------------|
|-----------12121212-----------------------12121212----------12121212-|
|--99999999--------------14141414-------------------14141414----------|
|---------------------------------------------------------------------|
|---------------------------------------------------------------------|
|---------------------------------------------------------------------|

|----------111111111---|
|-14141414-------------|
|----------------------|
|----------------------|
|----------------------|
|----------------------|

Chorus

Solo
Guitar 1
|----------------------------------------------------------------|
|----------------------------------------------------------------|
|---66666666666666-----------------------------------------------|
|---66666666666666-999999999999-77777777777777-2222222222222222--|
|---44444444444444-999999999999-77777777777777-2222222222222222--|
|------------------777777777777-55555555555555-0000000000000000--|

|----------------------------------------------------------------|
|----------------------------------------------------------------|
|---66666666666666-----------------------------------------------|
|---66666666666666-999999999999-77777777777777-1010101010101010--|
|---44444444444444-999999999999-77777777777777-1010101010101010--|
|------------------777777777777-55555555555555-8888888888888888--|

Guitar 2 x2
|----------------------------------------------------------------|
|----------------------------------------------------------------|
|---11-11-----9-9-----9-9----8-8-----6-6----8-8----9-9---11-11---|
|----------------------------------------------------------------|
|----------------------------------------------------------------|
|----------------------------------------------------------------|

Guitar 3 
|-----------------------------------------|
|-----------------------------------------|
|-----------------------------------------|
|--13-13-9-----9/11~---13-13-9------------|
|----------11------------------9-9/11~----|
|-----------------------------------------|
*=pinch harmonic
|----------------------------------------------------12~--|
|--9-9-10-9-7-------------------------------------12------|
|-------------9-11-11b-11b*-11r-9----9--------------------|
|---------------------------------11---11-9-11/14~--------|
|---------------------------------------------------------|
|---------------------------------------------------------|
play really fast
|-------------------------------------------------------------------------|
|-------------------------------------------------------------------------|
|--6-8-6-8-6-9-9-9-6-8-6--8-6-9-9-9-6-8-6-8-6-9-9-9-6-8-6--8-69-9-9-6-8-6-|
|-------------------------------------------------------------------------|
|-------------------------------------------------------------------------|
|-------------------------------------------------------------------------|

|--------------------------------------------------------------------------|
|--------------------------------------------------------------------------|
|-11-11-11-8-9-8-1111-11-8-9-8------8-9-8----------------------------------|
|------------------------------7-11-------11-9----11b-11b------------------|
|----------------------------------------------11-----------9------9b*-----|
|---------------------------------------------------------9---12-9----12-9-|

|---------------------------------------------------|
|---------------------------------------------------|
|-------------------12-11-12-12/14~-12-11-----------|
|-----------------------------------------12-12/14~-|
|-----------9-9-10~---------------------------------|
|-9-12-9-12-----------------------------------------|

New Chorus
Guitar 1
|-------------------------------------------------------------|
|-------------------------------------------------------------|
|--6~---------------------------------------------------------|
|--6~-66666666--7777777777777-999999999999999-77777777777777--|
|--4~-44444444--7777777777777-999999999999999-77777777777777--|
|---------------5555555555555-777777777777777-55555555555555--|

Then play normal chorus for 3 times

Guitar 2
|-------------------------------------------------------------|
|-------------------------------------------------------------|
|-----9999999999999999999999-8888888888888888-99999999999999--|
|-----xxxxxxxxxxxxxxxxxxxxxx-xxxxxxxxxxxxxxxx-xxxxxxxxxxxxxx--|
|-----7777777777777777777777-6666666666666666-77777777777777--|
|-------------------------------------------------------------|

Then play normal chorus for 3 times

Guitar 3 plays same thing as always but comes in on the first A chord.
listen for between the choruses guitar 3 plays this
|-16-14---------------------------------------------|
|-------17-16-17-14----14---------------------------|
|-------------------16----16-14-13-14-13------------|
|----------------------------------------16-14------|
|---------------------------------------------------|
|---------------------------------------------------|

at the end of the last chorus guitar 3 plays this
|-16-14-------------------------------------------------16-17-19~--|
|-------17-16-17-16-14----14----------------14-16-17-19------------|
|----------------------16----16-14-13-14-16------------------------|
|------------------------------------------------------------------|
|------------------------------------------------------------------|
|------------------------------------------------------------------|
Guitar 1 and 2 play E chords 2 times then play this (listen)
|-----------|
|-----------|
|-----------|
|--7-6-4-2--|
|--7-6-4-2--|
|--5-4-2-0--|
   * * *
Guitar 3 between E chords
|------------------------------------------------------------------------|
|------------------------------------------------------------------------|
|------------------------------------------------------------------------|
|---18---18---18---18-19--16---16---16---16-18--14---14---14----------14-|
|-----19---19---19----------19---19---19----------16---16---16--16/18----|
|------------------------------------------------------------------------|

rest of the song is basically E, B, F# over and over again and the violin
uses the same melody as Guitar 3's last part

thats pretty much it, please rate this and add a comment
            

comments powered by Disqus
↑ Back to top | Yellowcard Tabs for Holly Wood Died. Lyrics for acoustic guitar and electric guitar. Tablatures and chords are parodies/interpretations of the original songs. You may use it for private study, scholarship, research or language learning purposes only