» » »

Yellowcard, Hidden Track Tabs (ver.1)

Artists:  A B C D E F G H I J K L M N O P Q R S T U V W X Y Z # 

Hidden Track Tabs (ver.1)

Yellowcard Tabs
 Rating:
4/5 (4 votes)
Hidden Track lessons Tabs too difficult? Try these video lessons and learn fast
                

DROP D TUNING! 

~ - let ring out 
... - palm mute 
2x 
2x - mute after strumming 
2x 

Starts at 4:20 of track 12 

GUITAR 1'S PARTS 
---------------- 
Intro: 
e|---------------------------------------------------------------------------| 
B|---------------------------------------------------------------------------| 
G|5~-----5-5x----5-5x----5---------------------------------------------------| 
D|5~-----5-5x----5-5x----5-2-2-2--------------2-2-2--------------------------| 
A|3~-----3-3x----3-3x----3-2-2-2--2--2-2-2-2--2-2-2--2--2-2-2-2--------------| 
D|-------------------------2-2-2--2--2-2-2-2--2-2-2--2--2-2-2-2--------------| 
. ....... . ....... 

Intro Cont'd: 
e|---------------------------------------------------------------------------| 
B|---------------------------------------------------------------------------| 
G|5-5--5-4-4--4-7x----7-5-4--------------------------------------------------| 
D|x-x--x-x-x--x-x-----x-x-x--------------------------------------------------| 
A|3-3--3-2-2--2-5x----5-3-2--------------------------------------------------| 
D|---------------------------------------------------------------------------| 

Verse: "Heeeeeeeeeeeeeeeeee..." 
e|---------------------------------------------------------------------------| 
B|---------------------------------------------------------------------------| 
G|5-5-5-5-5-5-5-5-5-5-5-5-5-5-5-5-5-5-5-5-5-5-5-5-5-5-5-5-5-5-5-5------------| 
D|5-5-5-5-5-5-5-5-5-5-5-5-5-5-5-5-5-5-5-5-5-5-5-5-5-5-5-5-5-5-5-5------------| 
A|3-3-3-3-3-3-3-3-3-3-3-3-3-3-3-3-3-3-3-3-3-3-3-3-3-3-3-3-3-3-3-3------------| 
D|---------------------------------------------------------------------------| 

Verse Cont'd: 
e|---------------------------------------------------------------------------| 
B|---------------------------------------------------------------------------| 
G|--------------------------------------------5-5--5-4-4--4------------------| 
D|2-2-2--2--2-2-2-2--2-2-2--2--2-2-2-2--2-2-2-x-x--x-x-x--x------------------| 
A|2-2-2--2--2-2-2-2--2-2-2--2--2-2-2-2--2-2-2-3-3--3-2-2--2-5-5-5-5-3-2------| 
D|2-2-2--2--2-2-2-2--2-2-2--2--2-2-2-2--2-2-2--------------------------------| 
. ....... . ....... 

Verse Cont'd: 
e|---------------------------------------------------------------------------| 
B|---------------------------------------------------------------------------| 
G|5-5-5-5-5-5-5-5-5-5-5-5-5-5-5-5-5-5-5-5-5-5-5-5-5-5-5-5-5-5-5-5------------| 
D|5-5-5-5-5-5-5-5-5-5-5-5-5-5-5-5-5-5-5-5-5-5-5-5-5-5-5-5-5-5-5-5------------| 
A|3-3-3-3-3-3-3-3-3-3-3-3-3-3-3-3-3-3-3-3-3-3-3-3-3-3-3-3-3-3-3-3------------| 
D|---------------------------------------------------------------------------| 

METAL BABY!!!: (3x) 
e|---------------------------------------------------------------------------| 
B|---------------------------------------------------------------------------| 
G|--------5------------------------------------------------------------------| 
D|2-2x--2-5-3-2-2x--2-2x-----------------------------------------------------| 
A|2-2x--2-3-3-2-2x--2-2x-----------------------------------------------------| 
D|2-2x--2---3-2-2x--2-2x-----------------------------------------------------| 

Ending: 
e|---------------------------------------------------------------------------| 
B|---------------------------------------------------------------------------| 
G|--------5---7-7-7-5-4------------------------------------------------------| 
D|2-2x--2-5-3-x-x-x-x-x-0-2~-------------------------------------------------| 
A|2-2x--2-3-3-5-5-5-3-2-0-2~-------------------------------------------------| 
D|2-2x--2---3-----------0-2~-------------------------------------------------| 

GUITAR 2'S PARTS: 
----------------- 
Intro: 
e|---------------------------------------------------------------------------| 
B|---------------------------------------------------------------------------| 
G|9~----9-9x---9-9x---7--9-9-9--9--9-9-9-9--9-9-9--9--9-9-9-9----------------| 
D|x-----x-x----x-x----7--x-x-x--x--x-x-x-x--x-x-x--x--x-x-x-x----------------| 
A|7~----7-7x---7-7x---5--7-7-7--7--7-7-7-7--7-7-7--7--7-7-7-7----------------| 
D|---------------------------------------------------------------------------| 
. ....... . ....... 

Intro Cont'd: 
e|---------------------------------------------------------------------------| 
B|---------------------------------------------------------------------------| 
G|9-9--9-7-7--7-10x---10-9-7-------------------------------------------------| 
D|x-x--x-x-x--x--x-----x-x-x-------------------------------------------------| 
A|7-7--7-5-5--5--8x----8-7-5-------------------------------------------------| 
D|---------------------------------------------------------------------------| 

Verse: "Heeeeeeeeeeeeeeeee..." 
e|---------------------------------------------------------------------------| 
B|---------------------------------------------------------------------------| 
G|9-9-9-9-9-9-9-9-9-9-9-9-9-9-9-9-9-9-9-9-9-9-9-9-9-9-9-9-9-9-9-9------------| 
D|x-x-x-x-x-x-x-x-x-x-x-x-x-x-x-x-x-x-x-x-x-x-x-x-x-x-x-x-x-x-x-x------------| 
A|7-7-7-7-7-7-7-7-7-7-7-7-7-7-7-7-7-7-7-7-7-7-7-7-7-7-7-7-7-7-7-7------------| 
D|---------------------------------------------------------------------------| 

Verse Cont'd: 
e|---------------------------------------------------------------------------| 
B|---------------------------------------------------------------------------| 
G|--------------------------------------------9-9--9-7-7--7-10-10-10-10-9-7--| 
D|2-2-2--2--2-2-2-2--2-2-2--2--2-2-2-2--2-2-2-x-x--x-x-x--x------------------| 
A|2-2-2--2--2-2-2-2--2-2-2--2--2-2-2-2--2-2-2-7-7--7-5-5--5------------------| 
D|2-2-2--2--2-2-2-2--2-2-2--2--2-2-2-2--2-2-2--------------------------------| 
. ....... . ....... ............... 

Verse Cont'd: 
e|---------------------------------------------------------------------------| 
B|---------------------------------------------------------------------------| 
G|9-9-9-9-9-9-9-9-9-9-9-9-9-9-9-9-9-9-9-9-9-9-9-9-9-9-9-9-9-9-9-9------------| 
D|x-x-x-x-x-x-x-x-x-x-x-x-x-x-x-x-x-x-x-x-x-x-x-x-x-x-x-x-x-x-x-x------------| 
A|7-7-7-7-7-7-7-7-7-7-7-7-7-7-7-7-7-7-7-7-7-7-7-7-7-7-7-7-7-7-7-7------------| 
D|---------------------------------------------------------------------------| 

METAL BABY!!!: (3x) 
e|---------------------------------------------------------------------------| 
B|---------------------------------------------------------------------------| 
G|--------5------------------------------------------------------------------| 
D|2-2x--2-5-3-2-2x--2-2x-----------------------------------------------------| 
A|2-2x--2-3-3-2-2x--2-2x-----------------------------------------------------| 
D|2-2x--2---3-2-2x--2-2x-----------------------------------------------------| 

Ending: 
e|---------------------------------------------------------------------------| 
B|---------------------------------------------------------------------------| 
G|--------5---10-10-10-9-7-5-4~----------------------------------------------| 
D|2-2x--2-5-3--x--x--x-x-x-x-x-----------------------------------------------| 
A|2-2x--2-3-3--8--8--8-7-5-3-2~----------------------------------------------| 
D|2-2x--2---3----------------------------------------------------------------| 

There is no better hidden track in this world. Metal is great. 
            
Submit corrections

comments powered by Disqus
↑ Back to top | Yellowcard Tabs for Hidden Track. Lyrics for acoustic guitar and electric guitar. Tablatures and chords are parodies/interpretations of the original songs. You may use it for private study, scholarship, research or language learning purposes only