>
 >
Hang You Up

Hang You Up Guitar Tabs

Yellowcard - Hang You Up chords, tabs, tablatures, lyrics

Guitar lessons | Add/correct | Request | Top 50 tabs Artists:  A B C D E F G H I J K L M N O P Q R S T U V W X Y Z 0-9

Hang You Up Guitar Tabs – Yellowcard

CD, Sheet music, Poster

Do you like Hang You Up? Share with your friends now
Bass TabsChordsChords v2TabsTabs v2Ukulele
--------------------------
 Hang You Up ~ Yellowcard
--------------------------
When You're Through Thinking, Say Yes   (2011)

(I know, pretty lame name)

Tempo: Around 98

Tuning: Standard

Note: Guitar 1 plays this the entire time:

E|---2---2---2---2-----|
B|-----3---3---3---3---|
G|---------------------|
D|---------------------|
A|---------------------|
E|---------------------|


  INTRO
E |--2--2--2--2--2--2--2--2----|--2--2--2--2--2--2--2--2----|
B |--3--3--3--3--3--3--3--3----|--3--3--3--3--3--3--3--3----|
G |--2--2--2--2--2--2--2--2----|--2--2--2--2--2--2--2--2----|
D |--0--0--0--0--0--0--0--0----|--0--0--0--0--0--0--0--0----|
A |----------------------------|----------------------------|
E |----------------------------|----------------------------|

VERSE
--2--2--2--2--2--2--2--2----|--3--3--3--3--3--3--3--3----|
--3--3--3--3--3--3--3--3----|--0--0--0--0--0--0--0--0----|
--2--2--2--2--2--2--2--2----|--0--0--0--0--0--0--0--0----|
--0--0--0--0--0--0--0--0----|--0--0--0--0--0--0--0--0----|
----------------------------|--x--x--x--x--x--x--x--x----|
----------------------------|--3--3--3--3--3--3--3--3----|


--2--2--2--2--2--2--2--2----|--3--3--3--3--3--3--3--3----|
--3--3--3--3--3--3--3--3----|--0--0--0--0--0--0--0--0----|
--2--2--2--2--2--2--2--2----|--0--0--0--0--0--0--0--0----|
--0--0--0--0--0--0--0--0----|--0--0--0--0--0--0--0--0----|
----------------------------|--x--x--x--x--x--x--x--x----|
----------------------------|--3--3--3--3--3--3--3--3----|


--2--2--2--2--2--2--2--2----|--3--3--3--3--3--3--3--3----|
--3--3--3--3--3--3--3--3----|--0--0--0--0--0--0--0--0----|
--4--4--4--4--4--4--4--4----|--0--0--0--0--0--0--0--0----|
--4--4--4--4--4--4--4--4----|--0--0--0--0--0--0--0--0----|
--2--2--2--2--2--2--2--2----|--x--x--x--x--x--x--x--x----|
----------------------------|--3--3--3--3--3--3--3--3----|


--2--2--2--2--2--2--2--2----|--3--3--3--3--3--3--3--3----|
--3--3--3--3--3--3--3--3----|--0--0--0--0--0--0--0--0----|
--2--2--2--2--2--2--2--2----|--0--0--0--0--0--0--0--0----|
--0--0--0--0--0--0--0--0----|--0--0--0--0--0--0--0--0----|
----------------------------|--x--x--x--x--x--x--x--x----|
----------------------------|--3--3--3--3--3--3--3--3----|


--2--2--2--2--2--2--2--2----|--3--3--3--3--3--3--3--3----|
--3--3--3--3--3--3--3--3----|--0--0--0--0--0--0--0--0----|
--2--2--2--2--2--2--2--2----|--0--0--0--0--0--0--0--0----|
--0--0--0--0--0--0--0--0----|--0--0--0--0--0--0--0--0----|
----------------------------|--x--x--x--x--x--x--x--x----|
----------------------------|--3--3--3--3--3--3--3--3----|


--2--2--2--2--2--2--2--2----|--3--3--3--3--3--3--3--3----|
--3--3--3--3--3--3--3--3----|--0--0--0--0--0--0--0--0----|
--4--4--4--4--4--4--4--4----|--0--0--0--0--0--0--0--0----|
--4--4--4--4--4--4--4--4----|--0--0--0--0--0--0--0--0----|
--2--2--2--2--2--2--2--2----|--x--x--x--x--x--x--x--x----|
----------------------------|--3--3--3--3--3--3--3--3----|


--2--2--2--2--2--2--2--2----|--3--3--3--3--3--3--3--3----|
--3--3--3--3--3--3--3--3----|--0--0--0--0--0--0--0--0----|
--4--4--4--4--4--4--4--4----|--0--0--0--0--0--0--0--0----|
--4--4--4--4--4--4--4--4----|--0--0--0--0--0--0--0--0----|
--2--2--2--2--2--2--2--2----|--x--x--x--x--x--x--x--x----|
----------------------------|--3--3--3--3--3--3--3--3----|

CHORUS
----------------------------|----------------------------|
-----------3-----------7----|-----------------------7----|
-----------4-----------7----|-----------4-----------7----|
-----0--4--------4--7-------|-----------5-----4--7-------|
--2-----------5-------------|-----2--5-----5-------------|
----------------------------|--3-------------------------|


----------------------------|----------------------------|
-----------3-----------7----|-----------------------7----|
-----------4-----------7----|-----------4-----------7----|
-----0--4--------4--7-------|-----------5-----4--7-------|
--2-----------5-------------|-----2--5-----5-------------|
----------------------------|--3-------------------------|


----------------------------|----------------------------|
-----------3-----------7----|-----------------------7----|
-----------4-----------7----|-----------4-----------7----|
-----0--4--------4--7-------|-----------5-----4--7-------|
--2-----------5-------------|-----2--5-----5-------------|
----------------------------|--3-------------------------|


----------------------------|----------------------------|
-----------3-----------7----|-----------------------7----|
-----------4-----------7----|-----------4-----------7----|
-----0--4--------4--7-------|-----------5-----4--7-------|
--2-----------5-------------|-----2--5-----5-------------|
----------------------------|--3-------------------------|


----------------------------|----------------------------|
-----------3-----------7----|-----------------------7----|
-----------4-----------7----|-----------4-----------7----|
-----0--4--------4--7-------|-----------5-----4--7-------|
--2-----------5-------------|-----2--5-----5-------------|
----------------------------|--3-------------------------|

VERSE
--2--2--2--2--2--2--2--2----|--2--2--2--2--2--2--2--2----|
--3--3--3--3--3--3--3--3----|--3--3--3--3--3--3--3--3----|
--2--2--2--2--2--2--2--2----|--2--2--2--2--2--2--2--2----|
--0--0--0--0--0--0--0--0----|--0--0--0--0--0--0--0--0----|
----------------------------|----------------------------|
----------------------------|----------------------------|


--2--2--2--2--2--2--2--2----|--3--3--3--3--3--3--3--3----|
--3--3--3--3--3--3--3--3----|--0--0--0--0--0--0--0--0----|
--2--2--2--2--2--2--2--2----|--0--0--0--0--0--0--0--0----|
--0--0--0--0--0--0--0--0----|--0--0--0--0--0--0--0--0----|
----------------------------|--x--x--x--x--x--x--x--x----|
----------------------------|--3--3--3--3--3--3--3--3----|


--2--2--2--2--2--2--2--2----|--3--3--3--3--3--3--3--3----|
--3--3--3--3--3--3--3--3----|--0--0--0--0--0--0--0--0----|
--2--2--2--2--2--2--2--2----|--0--0--0--0--0--0--0--0----|
--0--0--0--0--0--0--0--0----|--0--0--0--0--0--0--0--0----|
----------------------------|--x--x--x--x--x--x--x--x----|
----------------------------|--3--3--3--3--3--3--3--3----|


--2--2--2--2--2--2--2--2----|--3--3--3--3--3--3--3--3----|
--3--3--3--3--3--3--3--3----|--0--0--0--0--0--0--0--0----|
--4--4--4--4--4--4--4--4----|--0--0--0--0--0--0--0--0----|
--4--4--4--4--4--4--4--4----|--0--0--0--0--0--0--0--0----|
--2--2--2--2--2--2--2--2----|--x--x--x--x--x--x--x--x----|
----------------------------|--3--3--3--3--3--3--3--3----|


--2--2--2--2--2--2--2--2----|--3--3--3--3--3--3--3--3----|
--3--3--3--3--3--3--3--3----|--0--0--0--0--0--0--0--0----|
--2--2--2--2--2--2--2--2----|--0--0--0--0--0--0--0--0----|
--0--0--0--0--0--0--0--0----|--0--0--0--0--0--0--0--0----|
----------------------------|--x--x--x--x--x--x--x--x----|
----------------------------|--3--3--3--3--3--3--3--3----|


--2--2--2--2--2--2--2--2----|--3--3--3--3--3--3--3--3----|
--3--3--3--3--3--3--3--3----|--0--0--0--0--0--0--0--0----|
--2--2--2--2--2--2--2--2----|--0--0--0--0--0--0--0--0----|
--0--0--0--0--0--0--0--0----|--0--0--0--0--0--0--0--0----|
----------------------------|--x--x--x--x--x--x--x--x----|
----------------------------|--3--3--3--3--3--3--3--3----|


--2--2--2--2--2--2--2--2----|--3--3--3--3--3--3--3--3----|
--3--3--3--3--3--3--3--3----|--0--0--0--0--0--0--0--0----|
--4--4--4--4--4--4--4--4----|--0--0--0--0--0--0--0--0----|
--4--4--4--4--4--4--4--4----|--0--0--0--0--0--0--0--0----|
--2--2--2--2--2--2--2--2----|--x--x--x--x--x--x--x--x----|
----------------------------|--3--3--3--3--3--3--3--3----|


--2--2--2--2--2--2--2--2----|--3--3--3--3--3--3--3--3----|
--3--3--3--3--3--3--3--3----|--0--0--0--0--0--0--0--0----|
--4--4--4--4--4--4--4--4----|--0--0--0--0--0--0--0--0----|
--4--4--4--4--4--4--4--4----|--0--0--0--0--0--0--0--0----|
--2--2--2--2--2--2--2--2----|--x--x--x--x--x--x--x--x----|
----------------------------|--3--3--3--3--3--3--3--3----|

CHORUS
----------------------------|----------------------------|
-----------3-----------7----|-----------------------7----|
-----------4-----------7----|-----------4-----------7----|
-----0--4--------4--7-------|-----------5-----4--7-------|
--2-----------5-------------|-----2--5-----5-------------|
----------------------------|--3-------------------------|


----------------------------|----------------------------|
-----------3-----------7----|-----------------------7----|
-----------4-----------7----|-----------4-----------7----|
-----0--4--------4--7-------|-----------5-----4--7-------|
--2-----------5-------------|-----2--5-----5-------------|
----------------------------|--3-------------------------|


----------------------------|----------------------------|
-----------3-----------7----|-----------------------7----|
-----------4-----------7----|-----------4-----------7----|
-----0--4--------4--7-------|-----------5-----4--7-------|
--2-----------5-------------|-----2--5-----5-------------|
----------------------------|--3-------------------------|


----------------------------|----------------------------|
-----------3-----------7----|-----------------------7----|
-----------4-----------7----|-----------4-----------7----|
-----0--4--------4--7-------|-----------5-----4--7-------|
--2-----------5-------------|-----2--5-----5-------------|
----------------------------|--3-------------------------|


----------------------------|----------------------------|
-----------3-----------7----|-----------------------7----|
-----------4-----------7----|-----------4-----------7----|
-----0--4--------4--7-------|-----------5-----4--7-------|
--2-----------5-------------|-----2--5-----5-------------|
----------------------------|--3-------------------------|

VIOLIN SOLO
--2--2--2--2--2--2--2--2----|----------------------------|
--3--3--3--3--3--3--3--3----|--3--3--3--3--3--3--3--3----|
--2--2--2--2--2--2--2--2----|--4--4--4--4--4--4--4--4----|
--0--0--0--0--0--0--0--0----|--4--4--4--4--4--4--4--4----|
----------------------------|--2--2--2--2--2--2--2--2----|
----------------------------|----------------------------|


--3--3--3--3--3--3--3--3----|--2--2--2--2--2--2--2--2----|
--0--0--0--3--0--0--0--0----|--3--3--3--3--3--3--3--3----|
--0--0--0--0--0--0--0--0----|--2--2--2--2--2--2--2--2----|
--0--0--0--0--0--0--0--0----|--0--0--0--0--0--0--0--0----|
--x--x--x--x--x--x--x--x----|----------------------------|
--3--3--3--3--3--3--3--3----|----------------------------|


----------------------------|----------------------------|
----------------------------|--3--3--3--3--3--3--3--3----|
----------------------------|--4--4--4--4--4--4--4--4----|
--5--5--5--5--5--5--5--5----|--4--4--4--4--4--4--4--4----|
--5--5--5--5--5--5--5--5----|--2--2--2--2--2--2--2--2----|
--2--2--2--2--2--2--2--2----|----------------------------|


----------------------------|--0--0--0--0--0--0--0--0----|
----------------------------|--3--3--3--3--3--3--3--3----|
--2--2--2--2--2--2--2--2----|--2--2--2--2--2--2--2--2----|
--2--2--2--2--2--2--2--2----|--0--0--0--0--0--0--0--0----|
--0--0--0--0--0--0--0--0----|----------------------------|
----------------------------|----------------------------|

                             BRIDGE
-----------------3--3--3----|--2--2--2--2--2--2--2--2----|
-----------------0--0--0----|--3--3--3--3--3--3--3--3----|
--2--2--2--2--2--0--0--0----|--4--4--4--4--4--4--4--4----|
--2--2--2--2--2--0--0--0----|--4--4--4--4--4--4--4--4----|
--0--0--0--0--0--x--x--x----|--2--2--2--2--2--2--2--2----|
-----------------3--3--3----|----------------------------|


--2--2--2--2--2--2--2--2----|--3--3--3--3--3--3--3--3----|
--3--3--3--3--3--3--3--3----|--0--0--0--0--0--0--0--0----|
--4--4--4--4--4--2--2--2----|--0--0--0--0--0--0--0--0----|
--4--4--4--4--4--0--0--0----|--0--0--0--0--0--0--0--0----|
--2--2--2--2--2-------------|--x--x--x--x--x--x--x--x----|
----------------------------|--3--3--3--3--3--3--3--3----|


--3--3--3--3--3--3--3--3----|--2--2--2--2--2--2--2--2----|
--0--0--0--0--0--0--0--0----|--3--3--3--3--3--3--3--3----|
--0--0--0--0--0--0--0--0----|--4--4--4--4--4--4--4--4----|
--0--0--0--0--0--0--0--0----|--4--4--4--4--4--4--4--4----|
--x--x--x--x--x--x--x--x----|--2--2--2--2--2--2--2--2----|
--3--3--3--3--3--3--3--3----|----------------------------|


--2--2--2--2--2--2--2--2----|----------------------------|
--3--3--3--3--3--3--3--3----|----------------------------|
--4--4--4--4--4--4--4--4----|--2--2--2--2--2--2--2--2----|
--4--4--4--4--4--4--4--4----|--2--2--2--2--2--2--2--2----|
--2--2--2--2--2--2--2--2----|--0--0--0--0--0--0--0--0----|
----------------------------|----------------------------|


-----------------3--3--3----|--2--2--2--2--2--2--2--2----|
-----------------0--0--0----|--3--3--3--3--3--3--3--3----|
--2--2--2--2--2--0--0--0----|--2--2--2--2--2--2--2--2----|
--2--2--2--2--2--0--0--0----|--0--0--0--0--0--0--0--0----|
--0--0--0--0--0--x--x--x----|----------------------------|
-----------------3--3--3----|----------------------------|

                             CHORUS
--2--2--2--2--2--2--2--2----|----------------------------|
--3--3--3--3--3--3--3--3----|-----------3-----------7----|
--2--2--2--2--2--2--2--2----|-----------4-----------7----|
--0--0--0--0--0--0--0--0----|-----0--4--------4--7-------|
----------------------------|--2-----------5-------------|
----------------------------|----------------------------|


----------------------------|----------------------------|
-----------------------7----|-----------3-----------7----|
-----------4-----------7----|-----------4-----------7----|
-----------5-----4--7-------|-----0--4--------4--7-------|
-----2--5-----5-------------|--2-----------5-------------|
--3-------------------------|----------------------------|


----------------------------|----------------------------|
-----------------------7----|-----------3-----------7----|
-----------4-----------7----|-----------4-----------7----|
-----------5-----4--7-------|-----0--4--------4--7-------|
-----2--5-----5-------------|--2-----------5-------------|
--3-------------------------|----------------------------|


----------------------------|----------------------------|
-----------------------7----|-----------3-----------7----|
-----------4-----------7----|-----------4-----------7----|
-----------5-----4--7-------|-----0--4--------4--7-------|
-----2--5-----5-------------|--2-----------5-------------|
--3-------------------------|----------------------------|

                             OUTRO
----------------------------|----------------------------|
-----------------------7----|----------------------------|
-----------4-----------7----|--4--4--4--4--7--7--7--7----|
-----------5-----4--7-------|--4--4--4--4--7--7--7--7----|
-----2--5-----5-------------|--2--2--2--2--5--5--5--5----|
--3-------------------------|----------------------------|


----------------------------|----------------------------|
----------------------------|----------------------------|
--------------7--7--7--7----|--4--4--4--4--7--7--7--7----|
--5--5--5--5--7--7--7--7----|--4--4--4--4--7--7--7--7----|
--5--5--5--5--5--5--5--5----|--2--2--2--2--5--5--5--5----|
--3--3--3--3----------------|----------------------------|


----------------------------|----------------------------|
----------------------------|----------------------------|
--------------7--7--7--7----|--4--4--4--4--7--7--7--7----|
--5--5--5--5--7--7--7--7----|--4--4--4--4--7--7--7--7----|
--5--5--5--5--5--5--5--5----|--2--2--2--2--5--5--5--5----|
--3--3--3--3----------------|----------------------------|


----------------------------|----------------------------|
----------------------------|----------------------------|
--------------7--7--7--7----|--4--4--4--4--7--7--7--7----|
--5--5--5--5--7--7--7--7----|--4--4--4--4--7--7--7--7----|
--5--5--5--5--5--5--5--5----|--2--2--2--2--5--5--5--5----|
--3--3--3--3----------------|----------------------------|


----------------------------|----------------------------|
----------------------------|----------------------------|
--------------7--7--7--7----|--4--4--4--4--7--7--7--7----|
--5--5--5--5--7--7--7--7----|--4--4--4--4--7--7--7--7----|
--5--5--5--5--5--5--5--5----|--2--2--2--2--5--5--5--5----|
--3--3--3--3----------------|----------------------------|


----------------------------|----------------------------|
----------------------------|----------------------------|
--------------7--7--7--7----|--4--4--4--4--7--7--7--7----|
--5--5--5--5--7--7--7--7----|--4--4--4--4--7--7--7--7----|
--5--5--5--5--5--5--5--5----|--2--2--2--2--5--5--5--5----|
--3--3--3--3----------------|----------------------------|


----------------------------|----------------------------|
----------------------------|----------------------------|
--------------7--7--7--7----|--7--7--7--7--7--7--7--7----|
--5--5--5--5--7--7--7--7----|--7--7--7--7--7--7--7--7----|
--5--5--5--5--5--5--5--5----|--5--5--5--5--5--5--5--5----|
--3--3--3--3----------------|----------------------------|


--2--2--2--2--2--2--2--2----|--3--3--3--3--3--3--3--3----|
--3--3--3--3--3--3--3--3----|--0--0--0--0--0--0--0--0----|
--2--2--2--2--2--2--2--2----|--0--0--0--0--0--0--0--0----|
--0--0--0--0--0--0--0--0----|--0--0--0--0--0--0--0--0----|
----------------------------|--x--x--x--x--x--x--x--x----|
----------------------------|--3--3--3--3--3--3--3--3----|


--2--2--2--2--2--2--2--2----|--3--3--3--3--3--3--3--3----|
--3--3--3--3--3--3--3--3----|--0--0--0--0--0--0--0--0----|
--2--2--2--2--2--2--2--2----|--0--0--0--0--0--0--0--0----|
--0--0--0--0--0--0--0--0----|--0--0--0--0--0--0--0--0----|
----------------------------|--x--x--x--x--x--x--x--x----|
----------------------------|--3--3--3--3--3--3--3--3----|


--2--2--2--2--2--2--2--2----|--3----|----||
--3--3--3--3--3--3--3--3----|--0----|----||
--4--4--4--4--4--4--4--4----|--0----|----||
--4--4--4--4--4--4--4--4----|--0----|----||
--2--2--2--2--2--2--2--2----|--x----|----||
----------------------------|--3----|----||



Violin Part (Arranged for Guitar):

Verse 2:

E |-----0L-0-----0-------------|-----0L-0-----0-------------|
B |--3--------3----------------|--3--------3----------------|
G |----------------------------|----------------------------|
D |----------------------------|----------------------------|
A |----------------------------|----------------------------|
E |----------------------------|----------------------------|


-----0L-0-----0-------------|--2--5L-5-----5-------------|
--3--------3----------------|-----------7----------------|
----------------------------|----------------------------|
----------------------------|----------------------------|
----------------------------|----------------------------|
----------------------------|----------------------------|


-----0L-0-----0-------------|-----0L-0-----0-----3--2----|
--3--------3----------------|--3--------3----------------|
----------------------------|----------------------------|
----------------------------|----------------------------|
----------------------------|----------------------------|
----------------------------|----------------------------|


-----0L-0-----0-------------|--2--5L-5-----0-------------|
--3--------3----------------|-----------3----------------|
----------------------------|----------------------------|
----------------------------|----------------------------|
----------------------------|----------------------------|
----------------------------|----------------------------|


-----0L-0-----0-------------|--2--5L-5-----0-------------|
--3--------3----------------|-----------3----------------|
----------------------------|----------------------------|
----------------------------|----------------------------|
----------------------------|----------------------------|
----------------------------|----------------------------|


-----10L10-8L-8--7L-7--8L---|--8--7L-7-------------------|
--3-------------------------|----------------------------|
----------------------------|----------------------------|
----------------------------|----------------------------|
----------------------------|----------------------------|
----------------------------|----------------------------|


-----10L10-8L-8--10L10-12---|--12---|
--3-------------------------|-------|
----------------------------|-------|
----------------------------|-------|
----------------------------|-------|
----------------------------|-------|


Violin Solo (Starts 1 bar before):

 (chorus)                     (violin solo)
|--7--------8--------10------|----------------------------|
|----------------------------|----------------------------|
|----------------------------|--11-------12-11------------|
|----------------------------|----------------------------|
|----------------------------|----------------------------|
|----------------------------|----------------------------|


-----8--10-12---|--10------------------------|-----8--10-12---|
----------------|-----------10-10------------|----------------|
----------------|----------------------------|----------------|
----------------|----------------------------|----------------|
----------------|----------------------------|----------------|
----------------|----------------------------|----------------|


-----------10L10----10-12---|-----------10L10----10-12---|
-----10-12-------12---------|-----10-12-------12---------|
--11------------------------|--11------------------------|
----------------------------|----------------------------|
----------------------------|----------------------------|
----------------------------|----------------------------|


--12----------------10----------------------12-14---|
----------------------------------------------------|
----------------------------------------------------|
----------------------------------------------------|
----------------------------------------------------|
----------------------------------------------------|


--12-------10---------------|
----------------------------|
----------------------------|
----------------------------|
----------------------------|
----------------------------|





Comments


Popular Yellowcard tabs & chords
Empty Apartment Bass Tabs
The Sound Of You And Me Bass Tabs
Hang You Up Chords
Sing For Me 3 Chords
Drifting Tabs
Finish Line Tabs
October Nights 2 Tabs
Only One Live Tabs
Takedown 2 Tabs
See Me Smiling Ukulele


Song lyrics



↑ Back to top | Tablatures and chords are parodies/interpretations of the original songs. You may use it for private study, scholarship, research or language learning purposes only
© 2014 AZChords.com Contact us | Privacy policy | DMCA | Add/correct tabs | Request tabs | Top 50 tabs