>
 >
Firewater

Firewater Guitar Tabs

Yellowcard - Firewater chords, tabs, tablatures, lyrics

Guitar lessons | Add/correct | Request | Top 50 tabs Artists:  A B C D E F G H I J K L M N O P Q R S T U V W X Y Z 0-9

Firewater Guitar Tabs – Yellowcard

CD, Sheet music, Poster

Do you like Firewater? Share with your friends now
TabsTabs v2Tabs v3
Gtr.1 - Standard
Gtr.2 - Standard
Gtr.3 - Standard(Violin)
Gtr.4 - Standard(Violin)
Gtr.5 - Standard

Intro
Gtr.1(figure out strumming pattern)(Intro/Verse)
e|-0>-----0>-----0>-----0>-0>--0>-----0>-----0>-----0>-0>-|
B|-0>-----0>-----0>-----0>-0>--0>-----0>-----0>-----0>-0>-|
G|-4>----/8>----\6>----\1>-2>-/4>----/8>----\6>----/9>-8>-|
D|--------------------------------------------------------|
A|--------------------------------------------------------|
E|--------------------------------------------------------|
Gtr.3(figure out timing)
e|--------------------------------------------------------|
B|-----------------------------------------------12-------|
G|-11-13~---14p13-11~--13p11-9~-9h11-13-11-13-14----14-13-|
D|--------------------------------------------------------|
A|--------------------------------------------------------|
E|--------------------------------------------------------|
Gtr.2(comes in when Gtr.1 gets to 4th on G 2nd time)
e|--------------(12)-|
B|-(12)---(7)--------|
G|-------------------|
D|-------------------|
A|-------------------|
E|-------------------|

Verse(Gtr.1 keeps playing Intro/Verse)
Gtr.3(figure out timing)
e|---------------------------|------|-------------------------------------|
B|---------------------------|------|-------------------------------------|
G|-13~---14p13-11~--13p11-9~-|-8--9-|-13-11-9-11-9-8-9~--9h11p9-8~--6~--4~|
D|---------------------------|------|-------------------------------------|
A|---------------------------|------|-------------------------------------|
E|---------------------------|------|-------------------------------------|
Gtr.4 (comes in 2nd time)(figure out timing)
e|---------------------------------------------------------------------|
B|---------------------------------------------------------------------|
G|-16~-----14~----14h16-13~--16-14-13-14-13-11-13~--14p13-11~--13p11-9~|
D|---------------------------------------------------------------------|
A|---------------------------------------------------------------------|
E|---------------------------------------------------------------------|

Part After the Verse
Gtr.2
e|-----0~------0x----0~------0x-----7~------7-----7~|
B|-----9~------------7~-----------------------------|
G|---9~------9~----9~------9~-----9~------9~----9~--|
D|-7~------7~----7~------7~-----7~------7~----7~----|
A|--------------------------------------------------|
E|--------------------------------------------------|

Verse 2(I'm gonna overcome this..")
Gtr.1(do this 2x then go to cont'd)
e|--------------------------------------------------------|
B|--------------------------------------------------------|
G|------------------------------------------9--9-9--9-9-9-|
D|-2-2x--6-6x--7--7-7--7-7-7--11-11x--9-9x--6--6-6--6-6-6-|
A|-2-2x--6-6x--4--4-4--4-4-4--11-11x--6-6x--7--7-7--7-7-7-|
E|-0-0x--4-4x--5--5-5--5-5-5---9--9x--7-7x----------------|
cont'd(do this 2x)
e|--------------------------------------------------------|
B|--------------------------------------------------------|
G|--------------------------------------------------------|
D|-2-2x--6-6x--7--7-7--7-7-7--11-11x--9-9x--6--6-6--6-6-6-|
A|-2-2x--6-6x--4--4-4--4-4-4--11-11x--6-6x--7--7-7--7-7-7-|
E|-0-0x--4-4x--5--5-5--5-5-5---9--9x----------------------|

("I was never good at...")
Gtr.2(Figure out timing)
e|---------------------------------------------------|
B|---------------------0-------0-------2-----2-----2~|
G|-----2-------2-------1-------1-------2-----2-----2~|
D|-----4-------4---1-1---1-1-1---1-2-2---2-2---2-2~--|
A|-0-0---0-0-0---0-----------------------------------|
E|---------------------------------------------------|

Chorus(figure out strumming pattern)
Gtr.1
e|-----------------------------------------------------------|
B|-9>--7>----4>--5>------------------------------------------|
G|-9>--9>----6>--6>--------1>2>-4>--2>--1>-------------------|
D|-9>--9>----6>--6>----2>4>2>2>-2>--2>--2>---4x-6x-4x-2-2-2x-|
A|-7>--7>----4>--4>----0>0>0>0>-0>--0>--0>---0x-0x-0x-0-0-0x-|
E|-----------------------------------------------------------|
Gtr.2(goes along with Gtr.1)
e|---------------------0>0>0>0>-0>--0>--0>-------------------|
B|-9>--7>----4>--5>----0>0>0>0>-0>--0>--0>-------------------|
G|-9>--9>----6>--6>----x-x-1>2>-4>--2>--1>-------------------|
D|-9>--9>----6>--6>----2>4>2>2>-2>--2>--2>---6x-7x-6x-2-2-2x-|
A|-7>--7>----4>--4>----0>0>0>0>-0>--0>--0>---0x-0x-0x-0-0-0x-|
E|-0>--0>----------------------------------------------------|
Gtr.3(figure out timing)
e|-17-16-------------------------------------------------------|
B|-------17-14-------17-17-------17-17-16-16-17-17-16-16-17-17-|
G|-------------16-16-------16-16-------------------------------|
D|-------------------------------------------------------------|
A|-------------------------------------------------------------|
E|-------------------------------------------------------------|
cont'd(gtr.3)
e|-16----------17----------19----17----16-------------------------------|
B|----17----17----17----17----17----17----19-17-16-17----17----17----17-|
G|-------16----------16-------------------------------18----16----14----|
D|----------------------------------------------------------------------|
A|----------------------------------------------------------------------|
E|----------------------------------------------------------------------|
cont'd(gtr.3)
e|---------------------------------------------------------------------------|
B|-------------------------16-17---17----17----17----------------------------|
G|-13-14-13----13----13-14------18----16----14----13-14-13----13-------------|
D|----------16----16---------------------------------------16----16-14-16-14~|
A|---------------------------------------------------------------------------|
E|---------------------------------------------------------------------------|

Next Verse("when we were..")
Gtr.5(palm mute the notes in A and E strings)
e|-----------------------------------------------------------------|
B|-----------------------------------------------------------------|
G|-----9-------9--------9-------9-------9-------9-------9------9---|
D|-----------------------------------------------------------------|
A|-7-7---7-7-7---7----------------------------------7-7---7-7-7--7-|
E|-----------------9-9----9-9-9---9-7-7---7-7-7---7-0-0---0-0-0--0-|
cont'd
e|-------------------------------------------------------------|
B|-------------------------------------------------------------|
G|-----9-------9--------9-------9-------9-------9-------9------|
D|-------------------------------------------------------------|
A|-7-7---7-7-7---7----------------------------------7-7---7-7x-|
E|-----------------9-9----9-9-9---9-7-7---7-7-7---7-0-0---0-0x-|
Gtr.2(comes in 2nd time)
e|---------------------------------|
B|---------------------------------|
G|---------------------------------|
D|-----2~------2~------2~--------2~|
A|---2-------2-------2---------2---|
E|-0-------9-------7---------0-----|


("It's so much harder now")
Gtr.1
e|--------------------------------------------------------------|
B|----------------x-x-x--x-x-x-------------------x--x-x-x-x-x-x-|
G|----------------x-x-x--x-x-x----------------9--x--x-x-x-x-x-x-|
D|-2-2x--6-6x--7--x-x-x--x-x-x--11-11x--9-9x--6--x--x-x-x-x-x-x-|
A|-2-2x--6-6x--4--x-x-x--x-x-x--11-11x--6-6x--7--x--x-x-x-x-x-x-|
E|-0-0x--4-4x--5-----------------9--9---7-7x--------------------|
Gtr.2(goes with Gtr.1)(same strumming pattern as Gtr.1)
e|--------------------------------------------------------|
B|--------------x-x-x--x-x-x--9-9x10x9x----x--x-x-x-x-x-x-|
G|-8-8x9x8x-----x-x-x--x-x-x--9-9x-9x9x9x--x--x-x-x-x-x-x-|
D|-9-9x9x9x11x--x-x-x--x-x-x--9-9x-9x9x9x--x--x-x-x-x-x-x-|
A|-7-7x7x7x-7x--x-x-x--x-x-x--7-7x-7x7x7x--x--x-x-x-x-x-x-|
E|--------------------------------------------------------|
cont'd
e|-----------------------------------------------|
B|----------------x-x-x--x-x-x-------------------|
G|----------------x-x-x--x-x-x-------------------|
D|-2-2x--6-6x--7--x-x-x--x-x-x--11-11x--9-9x--6>-|
A|-2-2x--6-6x--4--x-x-x--x-x-x--11-11x--6-6x--7>-|
E|-0-0x--4-4x--5-----------------9--9------------|
(Gtr.2 cont'd)(Gtr.1 does the Db other stuff alone)
e|---------------------------|
B|--------------x-x-x--x-x-x-|
G|-8-8x9x8x-----x-x-x--x-x-x-|
D|-9-9x9x9x11x--x-x-x--x-x-x-|
A|-7-7x7x7x-7x--x-x-x--x-x-x-|
E|---------------------------|

Play ("I was never good at...")

Chorus 2
Gtr.1
e|-------------------------------------|
B|-9>--7>----4>--5>--------------------|
G|-9>--9>----6>--6>--------1>2>-4>--2>-|
D|-9>--9>----6>--6>----2>4>2>2>-2>--2>-|
A|-7>--7>----4>--4>----0>0>0>0>-0>--0>-|
E|-------------------------------------|
Gtr.2(goes along with Gtr.1)
e|---------------------0>0>0>0>-0>--0>-|
B|-9>--7>----4>--5>----0>0>0>0>-0>--0>-|
G|-9>--9>----6>--6>----x-x-1>2>-4>--2>-|
D|-9>--9>----6>--6>----2>4>2>2>-2>--2>-|
A|-7>--7>----4>--4>----0>0>0>0>-0>--0>-|
E|-0>--0>------------------------------|
Gtr.1
e|-----------------------------------------------|
B|-9>--7>----4>--5>------------------------------|
G|-9>--9>----6>--6>--------1>2>-4>--2>--1>-------|
D|-9>--9>----6>--6>----2>4>2>2>-2>--2>--2>--4>-2x|
A|-7>--7>----4>--4>----0>0>0>0>-0>--0>--0>--0>-0x|
E|-----------------------------------------------|
Gtr.2(goes along with Gtr.1)
e|---------------------0>0>0>0>-0>--0>--0>-------|
B|-9>--7>----4>--5>----0>0>0>0>-0>--0>--0>-------|
G|-9>--9>----6>--6>----x-x-1>2>-4>--2>--1>-------|
D|-9>--9>----6>--6>----2>4>2>2>-2>--2>--2>--4>-2x|
A|-7>--7>----4>--4>----0>0>0>0>-0>--0>--0>--0>-0x|
E|-0>--0>----------------------------------------|
Gtr.3(figure out timing)
e|-17-16-------------------------------------------------------|
B|-------17-14-------17-17-------17-17-16-16-17-17-16-16-17-17-|
G|-------------16-16-------16-16-------------------------------|
D|-------------------------------------------------------------|
A|-------------------------------------------------------------|
E|-------------------------------------------------------------|
cont'd
e|-16----------17----------19----17----16-------------------------------|
B|----17----17----17----17----17----17----19-17-16-17----17----17----17-|
G|-------16----------16-------------------------------18----16----14----|
D|----------------------------------------------------------------------|
A|----------------------------------------------------------------------|
E|----------------------------------------------------------------------|
cont'd
e|-------------------------------------------------------------------|start
B|-------------------------16-17----17----17----17-------------------|over
G|-13-14-13----13----13-14-------18----16----14----13-14-13----13----|after
D|----------16----16----------------------------------------16----16-|this
A|-------------------------------------------------------------------|then
E|-------------------------------------------------------------------
cont'd
e|-------------------------------------------|
B|-------------------------------------------|
G|----------------------16-13-14-16-13-14-16-|
D|-14-16-18-16-14-16-18----------------------|
A|-------------------------------------------|
E|-------------------------------------------|

("....today I couldn't...")
Gtr.5(strum for a REALLY long time)
e|-----|
B|-12>-|
G|--x--|
D|--9>-|
A|-----|
E|-----|
Gtr.1(figure out timing..pretty fast strum)
e|--------------------------|
B|--------------------------|
G|-11-11-11-11-11---9--9-9x-|
D|-11-11-11-11-11---9--9-9x-|
A|--9--9--9--9--9---7--7-7x-|
E|--0--0--0--0--0---0--0-0x-|

Then
Gtr.2
e|-----0~------0x----0~------0x-----7~------7-----7~|
B|-----9~------------7~-----------------------------|
G|---9~------9~----9~------9~-----9~------9~----9~--|
D|-7~------7~----7~------7~-----7~------7~----7~----|
A|--------------------------------------------------|
E|--------------------------------------------------|

Play Chorus 2

Part after
Gtr.1(figure out strumming)
e|-------------------|------------------|
B|-------------------|------------------|
G|-9-9---9-9--9-9--x-|-6-6---6-6--6-6-x-|
D|-9-9---9-9--9-9--x-|-6-6---6-6--6-6-x-|
A|-7-7---7-7--7-7--x-|-7-7---7-7--7-7-x-|
E|-0-0---0-0--0-0----|-9-9---9-9--9-9---|
Gtr.5(figure out timing)
e|---|-----0-------0-------0--------0---|
B|---|-9p0---0-7p0---0-9p0---0-10p0---0-|
G|-9~|----------------------------------|
D|---|----------------------------------|
A|---|----------------------------------|
E|---|----------------------------------|
Gtr.4(figure out timing)
e|------------16~----------16~-----------|
B|-17~----19-----------19---------19--17~|
G|---------------------------------------|
D|---------------------------------------|
A|---------------------------------------|
E|---------------------------------------|

("...forget your face")
Gtr.5(keep doing a bunch)(figure out pattern)
e|-0---|
B|---2-|
G|-----|
D|-----|
A|-----|
E|-----|
Gtr.3(timing)
e|-------------------------------------------------------------------------|
B|-16-17----17----17----17-------------------------16-17----17----17----17-|
G|-------18----16----14----13-14-13----13----13-14-------18----16----14----|
D|----------------------------------16----16-------------------------------|
A|-------------------------------------------------------------------------|
E|-------------------------------------------------------------------------|
cont'd
e|-------------------------------------------------16---14----14-------------|
B|---------------------------------------------------------17-----17-16-14---|
G|-13-14-13----13-------------------------------14-------------------------16|
D|----------16----16-14-16-18-14-16-18-14-16-18------------------------------|
A|---------------------------------------------------------------------------|
E|---------------------------------------------------------------------------|
Gtr.1
e|---------------------------|
B|---------------------------|
G|-----1>2>4>--2>--1>--------|
D|-2>4>2>2>2>--2>--2>--4>--2~|
A|-0>0>0>0>0>--0>--0>--0>--0~|
E|---------------------------|
Gtr.2
e|-0>0>0>0>0>--0>--0>--0>--0~|
B|-0>0>0>0>0>--0>--0>--0>--0~|
G|-x-x-1>2>4>--2>--1>--x---x-|
D|-2>4>2>2>2>--2>--2>--4>--2~|
A|-0>0>0>0>0>--0>--0>--0>--0~|
E|---------------------------|
Gtr.5 fill(figure out when it comes)(timing)
e|------------------|
B|-5--4-2h4-----0---|
G|----------2\1-----|
D|----------------2~|
A|------------------|
E|------------------|

Ending
Gtr.1(figure out strumming pattern)
e|-0>-----0>-----0>-----0>-0>--0>-----0>-----0~|
B|-0>-----0>-----0>-----0>-0>--0>-----0>-----0~|
G|-4>----/8>----\6>----\1>-2>-/4>----/8>----\2~|
D|---------------------------------------------|
A|---------------------------------------------|
E|---------------------------------------------|





Comments


Popular Yellowcard tabs & chords
Believe 2 Chords
For You And Your Denial 1 Chords
Hang You Up 1 Chords
Light Up The Sky 1 Chords
Sing For Me 6 Chords
Cigarette Tabs
Rough Draft 1 Tabs
Two Weeks From Twenty 2 Tabs
Be The Young Ukulele
Believe Ukulele


Song lyrics



↑ Back to top | Tablatures and chords are parodies/interpretations of the original songs. You may use it for private study, scholarship, research or language learning purposes only
© 2014 AZChords.com Contact us | Privacy policy | DMCA | Add/correct tabs | Request tabs | Top 50 tabs