>
 >
Everywhere 1

Everywhere 1 Guitar Tabs

Yellowcard - Everywhere 1 chords, tabs, tablatures, lyrics

Guitar lessons | Add/correct | Request | Top 50 tabs Artists:  A B C D E F G H I J K L M N O P Q R S T U V W X Y Z 0-9

Everywhere 1 Guitar Tabs – Yellowcard

CD, Sheet music, Poster

Do you like Everywhere 1? Share with your friends now
Bass TabsBass Tabs v2ChordsChords v2TabsTabs v2Ukulele
Yellowcard EVERYWHERE
Michelle Branch cover!


DROP D

Intro:
e|----4h5~-----2h4~------|
B|-----------------------|
G|--2--------1-----------|
D|4--------2-------------|
A|-----------------------|
D|-----------------------|
  (2x)
e|----------2-----0~-----|
B|----0------------------|
G|--2-----4-----1--------|
D|4-----1-----2----------|
A|-----------------------|
D|-----------------------|





Chorus
e|---------------------------------------------------------------------------|
B|---------------------------------------------------------------------------|
G|7-7-7-7-7-7-7-7------------------------------------------------------------|
D|7-7-7-7-7-7-7-7-7-7-7-7-7-7-7-7-2-2-2-2-2-2-2-2-2-2-2-2-2-2-2-2------------|
A|5-5-5-5-5-5-5-5-7-7-7-7-7-7-7-7-2-2-2-2-2-2-2-2-2-2-2-2-2-2-2-2------------|
D|----------------7-7-7-7-7-7-7-7-2-2-2-2-2-2-2-2-2-2-2-2-2-2-2-2------------|

Chorus
e|---------------------------------------------------------------------------|
B|---------------------------------------------------------------------------|
G|----2-----2-----2-----2-----1-----1-----4-----1----------------------------|
D|0-0---0-0---------------2-2---2-2---2-2---2-2------------------------------|
A|------------0-0---0-0------------------------------------------------------|
D|---------------------------------------------------------------------------|



VERSE
e|---------------------------------------------------------------------------|
B|---------------------------------------------------------------------------|
G|----------------2-2-2-2-2-2-2-2--------------------------------------------|
D|4-4-4-4-4-4-4-4-2-2-2-2-2-2-2-2-2-2-2-2-2-2-2-2-2-2-2-2-2-2-2-2------------|
A|4-4-4-4-4-4-4-4-0-0-0-0-0-0-0-0-2-2-2-2-2-2-2-2-2-2-2-2-2-2-2-2------------|
D|4-4-4-4-4-4-4-4-----------------2-2-2-2-2-2-2-2-2-2-2-2-2-2-2-2------------|
OTHER VERSE PART
e|---------------------------------------------------------------------------|
B|---------------------------------------------------------------------------|
G|---------------------------------------------------------------------------|
D|0-0-0-0-0-0-0-0-0-0-0-0-0-0-0-0-2-2-2-2-2-2-2-2-2-2-2-2-2-2-2-2------------|
A|0-0-0-0-0-0-0-0-0-0-0-0-0-0-0-0-2-2-2-2-2-2-2-2-2-2-2-2-2-2-2-2-4-4-4-4-4-4|
D|0-0-0-0-0-0-0-0-0-0-0-0-0-0-0-0-2-2-2-2-2-2-2-2-2-2-2-2-2-2-2-2-3-3-3-3-3-3|
MORE VERSE
e|---------------------------------------------------------------------------|
B|---------------------------------------------------------------------------|
G|---------------------------------------------------------------------------|
D|---------------------4-4-4-4-4-4-2-2-2-2-2-2-------------------------------|
A|4-4-4-4-4-4-4-4-4-4--4-4-4-4-4-4-2-2-2-2-2-2-2-2-2-2-2-2x------------------|
D|3-3-3-3-3-3-3-3-3-3--4-4-4-4-4-4-2-2-2-2-2-2-1-1-1-1-1-1x------------------|



Solo:
e|---------------------------------------------------------------------------|
B|6b-4b-5b-6b-7b-4b-5b-6b-7-7-7-7-7-7-7-7-7-7-7-7-9-9-9-9-9-9-9-9-9-9-9------|
G|---------------------------------------------------------------------------|
D|---------------------------------------------------------------------------|
A|---------------------------------------------------------------------------|
D|---------------------------------------------------------------------------|

e|---------------------------------------------------------------------------|
B|9-9-10-10-10-10-10-10-10-10-10-10-10-10-12-12-12-12-12-12-12-12-12-12-12-12|
G|---------------------------------------------------------------------------|
D|---------------------------------------------------------------------------|
A|---------------------------------------------------------------------------|
D|---------------------------------------------------------------------------|

e|---------------------------------------------------------------------------|
B|14h15p14----14h15p14----14h15p14--------------------------------12---------|
G|---------16----------16----------16-14-16-11h13-14-13-11-13-11b----11b-9b\-|
D|---------------------------------------------------------------------------|
A|---------------------------------------------------------------------------|
D|---------------------------------------------------------------------------|


Lyrics:

turn it inside out so i can see 
the part of you thats drifting over me 
cause when i look your never there 
but when i sleep your everywhere 
your everywhere 

tell me how i got this far 
tell me why your here and who you are 
cause everytime i look your never there 
and everytime i sleep your always there 

cause your everywhere to me 
and when i close my eyes its you i see 
your everything i know that makes me believe 
im not alone 

i recognize the way you make me feel 
its hard to think that you might not be real 
i sense it now the waters getting deep 
i try to wash the pain away from me 
away from me 

And when I touch your hand 
It's then I understand 
The beauty that's within 
It's now that we begin 
You always light my way 
there never comes a day 
No matter where I go 
I always feel you so 

your everywhere to me 
and when I catch my breath its you I breathe 
your everything i know that makes me believe 
im not alone 

your in everyone I see 
so tell me 
do you see me

-this is one crappy tab...but i was in a hurry so dont get mad...turtlepoke rocks!
~Rock





Comments


Popular Yellowcard tabs & chords
Date Line Bass Tabs
Be The Young Chords
Empty Apartment 1 Chords
Everywhere Chords
Rivertown Blues Chords
Rivertown Tabs
Rock Star Land (Intro) Tabs
Here I Am Alive Ukulele
Sure Thing Falling Ukulele
Words Hands Hearts Ukulele


Song lyrics



↑ Back to top | Tablatures and chords are parodies/interpretations of the original songs. You may use it for private study, scholarship, research or language learning purposes only
© 2014 AZChords.com Contact us | Privacy policy | DMCA | Add/correct tabs | Request tabs | Top 50 tabs