>
 >
Everywhere

Everywhere Guitar Tabs

Yellowcard - Everywhere chords, tabs, tablatures, lyrics

Guitar lessons | Add/correct | Request | Top 50 tabs Artists:  A B C D E F G H I J K L M N O P Q R S T U V W X Y Z 0-9

Everywhere Guitar Tabs – Yellowcard

CD, Sheet music, Poster

Do you like Everywhere? Share with your friends now
Bass TabsBass Tabs v2ChordsChords v2TabsTabs v2Ukulele

Michelle Branch cover song. 


DROP D TUNING! 

h - hammer on 
p - pull off 
b - bend 
/ \ - slide 
~ - let ring out 
... - palm mute 
2x 
2x - mute after strumming 
2x 

GUITAR 1'S PARTS: 
----------------- 
Intro: (3x) 
e|----4h5~-----2h4~------| 
B|-----------------------| 
G|--2--------1-----------| 
D|4--------2-------------| 
A|-----------------------| 
D|-----------------------| 

Intro Cont'd: (2x) 
e|----------2-----0~-----| 
B|----0------------------| 
G|--2-----4-----1--------| 
D|4-----1-----2----------| 
A|-----------------------| 
D|-----------------------| 

Intro Cont'd: (Violin Part) 
e|--------------------------5-5-5-5-5-7-9--9p7-7~---5-4~--5-4-2~-------------| 
B|---------------------------------------------------------------------------| 
G|------2-4-6--4-6--4h6-4~---------------------------------------------------| 
D|4-4-4----------------------------------------------------------------------| 
A|---------------------------------------------------------------------------| 
D|---------------------------------------------------------------------------| 

Verse: "Tell me how you got..." (2x) 
e|---------------------------------------------------------------------------| 
B|---------------------------------------------------------------------------| 
G|---------2-2----2--------2---2---------------------------------------------| 
D|4-4----4-2-2----2-2-2----2-2-2---------------------------------------------| 
A|4-4----4-0-0----0-2-2----0-2-0-2-2-2---------------------------------------| 
D|4-4----4----------2-2------2---2-2-2---------------------------------------| 
..... 

Verse Cont'd: 
e|----0~----0---------------0------------------------------------------------| 
B|------------0~------0------------------------------------------------------| 
G|--2---------------2-----4--------------------------------------------------| 
D|4-------2-------4-----1-----2~---2x----------------------------------------| 
A|---------------------------------2x----------------------------------------| 
D|---------------------------------2x----------------------------------------| 

Chorus: "Cuz you're everywhere..." (2x) 
e|---------------------------------------------------------------------------| 
B|---------------------------------------------------------------------------| 
G|7-7-7-7-7-7-7-7------------------------------------------------------------| 
D|7-7-7-7-7-7-7-7-7-7-7-7-7-7-7-7-2-2-2-2-2-2-2-2-2-2-2-2-2-2-2-2------------| 
A|5-5-5-5-5-5-5-5-7-7-7-7-7-7-7-7-2-2-2-2-2-2-2-2-2-2-2-2-2-2-2-2------------| 
D|----------------7-7-7-7-7-7-7-7-2-2-2-2-2-2-2-2-2-2-2-2-2-2-2-2------------| 

Chorus Cont'd: 
e|---------------------------------------------------------------------------| 
B|---------------------------------------------------------------------------| 
G|----2-----2-----2-----2-----1-----1-----4-----1----------------------------| 
D|0-0---0-0---------------2-2---2-2---2-2---2-2------------------------------| 
A|------------0-0---0-0------------------------------------------------------| 
D|---------------------------------------------------------------------------| 
... ... ... ... ... ... ... ... 

Chorus Cont'd: 
e|---------------------------------------------------------------------------| 
B|---------------------------------------------------------------------------| 
G|7-7-7-7-7-7-7-7------------------------------------------------------------| 
D|7-7-7-7-7-7-7-7-7-7-7-7-7-7-7-7-2-2-2-2-2-2-2-2x---------------------------| 
A|5-5-5-5-5-5-5-5-7-7-7-7-7-7-7-7-2-2-2-2-2-2-2-2x---------------------------| 
D|----------------7-7-7-7-7-7-7-7-2-2-2-2-2-2-2-2x---------------------------| 

Interlude: 
e|--------------------------5-5-5-5-5-7-9--9p7-7~---5-4~--5-4-2~-------------| 
B|---------------------------------------------------------------------------| 
G|------2-4-6--4-6--4h6-4~---------------------------------------------------| 
D|4-4-4----------------------------------------------------------------------| 
A|---------------------------------------------------------------------------| 
D|---------------------------------------------------------------------------| 

2nd Verse: (Phaser on) (2x) 
e|---------------------------------------------------------------------------| 
B|---------------------------------------------------------------------------| 
G|----------------2-2-2-2-2-2-2-2--------------------------------------------| 
D|4-4-4-4-4-4-4-4-2-2-2-2-2-2-2-2-2-2-2-2-2-2-2-2-2-2-2-2-2-2-2-2------------| 
A|4-4-4-4-4-4-4-4-0-0-0-0-0-0-0-0-2-2-2-2-2-2-2-2-2-2-2-2-2-2-2-2------------| 
D|4-4-4-4-4-4-4-4-----------------2-2-2-2-2-2-2-2-2-2-2-2-2-2-2-2------------| 

2nd Verse Cont'd: 
e|---------------------------------------------------------------------------| 
B|---------------------------------------------------------------------------| 
G|---------------------------------------------------------------------------| 
D|0-0-0-0-0-0-0-0-0-0-0-0-0-0-0-0-2-2-2-2-2-2-2-2-2-2-2-2-2-2-2-2------------| 
A|0-0-0-0-0-0-0-0-0-0-0-0-0-0-0-0-2-2-2-2-2-2-2-2-2-2-2-2-2-2-2-2-4-4-4-4-4-4| 
D|0-0-0-0-0-0-0-0-0-0-0-0-0-0-0-0-2-2-2-2-2-2-2-2-2-2-2-2-2-2-2-2-3-3-3-3-3-3| 

2nd Verse Cont'd: 
e|---------------------------------------------------------------------------| 
B|---------------------------------------------------------------------------| 
G|---------------------------------------------------------------------------| 
D|---------------------4-4-4-4-4-4-2-2-2-2-2-2-------------------------------| 
A|4-4-4-4-4-4-4-4-4-4--4-4-4-4-4-4-2-2-2-2-2-2-2-2-2-2-2-2x------------------| 
D|3-3-3-3-3-3-3-3-3-3--4-4-4-4-4-4-2-2-2-2-2-2-1-1-1-1-1-1x------------------| 

Repeat Chorus 

Solo: 
e|---------------------------------------------------------------------------| 
B|6b--4b--5b--6b--7b--4b--5b--6b-7-7-7-7-7-7-7-7-7-7-7-7-9-9-9-9-9-9-9-9-9-9-| 
G|---------------------------------------------------------------------------| 
D|---------------------------------------------------------------------------| 
A|---------------------------------------------------------------------------| 
D|---------------------------------------------------------------------------| 

Solo Cont'd: 
e|---------------------------------------------------------------------------| 
B|9-9-10-10-10-10-10-10-10-10-10-10-10-10-12-12-12-12-12-12-12-12-12-12-12-12| 
G|---------------------------------------------------------------------------| 
D|---------------------------------------------------------------------------| 
A|---------------------------------------------------------------------------| 
D|---------------------------------------------------------------------------| 

Solo Cont'd: 
e|---------------------------------------------------------------------------| 
B|14h15p14----14h15p14----14h15p14--------------------------------12---------| 
G|---------16----------16----------16-14-16-11h13-14-13-11-13-11b----11b-9b\-| 
D|---------------------------------------------------------------------------| 
A|---------------------------------------------------------------------------| 
D|---------------------------------------------------------------------------| 

Part After Solo: (Violin and drums only) 

Repeat Chorus a lot 

Ending: 
e|----0-----0-------------0-----0--------------------------------------------| 
B|----------------0~--------------0~-----------------------------------------| 
G|--2-----2-----1-------2-----2---1~-----------------------------------------| 
D|4-----2-----2-------4-----2-----2~-----------------------------------------| 
A|---------------------------------------------------------------------------| 
D|---------------------------------------------------------------------------| 

GUITAR 2'S PARTS: 
----------------- 
Intro: (Only Guitar 1) 

Intro Cont'd: (When violin comes in) (2x) 
e|---------------------------------------------------------------------------| 
B|---------------------------------------------------------------------------| 
G|---------2-2----2--------2---2---------------------------------------------| 
D|4-4----4-2-2----2-2-2----2-2-2---------------------------------------------| 
A|4-4----4-0-0----0-2-2----0-2-0-2-2-2---------------------------------------| 
D|4-4----4----------2-2------2---2-2-2---------------------------------------| 
..... 

Verse: "Tell me how you got..." (2x) 
e|---------------------------------------------------------------------------| 
B|---------------------------------------------------------------------------| 
G|---------2-2----2--------2---2---------------------------------------------| 
D|4-4----4-2-2----2-2-2----2-2-2---------------------------------------------| 
A|4-4----4-0-0----0-2-2----0-2-0-2-2-2---------------------------------------| 
D|4-4----4----------2-2------2---2-2-2---------------------------------------| 
..... 

Verse Cont'd: 
e|---------------------------------------------------------------------------| 
B|---------------------------------------------------------------------------| 
G|----------------------------2x---------------------------------------------| 
D|0~-----2~-----0~------2~----2x---------------------------------------------| 
A|0~-----2~-----0~------2~----0x---------------------------------------------| 
D|0~-----2~-----0~------2~---------------------------------------------------| 

Chorus: "Cuz you're everywhere to me..." (2x) 
e|---------------------------------------------------------------------------| 
B|---------------------------------------------------------------------------| 
G|7-7-7-7-7-7-7-7------------------------------------------------------------| 
D|7-7-7-7-7-7-7-7-7-7-7-7-7-7-7-7-2-2-2-2-2-2-2-2-2-2-2-2-2-2-2-2------------| 
A|5-5-5-5-5-5-5-5-7-7-7-7-7-7-7-7-2-2-2-2-2-2-2-2-2-2-2-2-2-2-2-2------------| 
D|----------------7-7-7-7-7-7-7-7-2-2-2-2-2-2-2-2-2-2-2-2-2-2-2-2------------| 

Chorus Cont'd: 
e|---------------------------------------------------------------------------| 
B|---------------------------------------------------------------------------| 
G|7-7-7-7-7-7----------------------------------------------------------------| 
D|7-7-7-7-7-7-7-7-7-7-7-7-2-2-2-2-2-2-2-2-2-2-2-2----------------------------| 
A|5-5-5-5-5-5-7-7-7-7-7-7-2-2-2-2-2-2-2-2-2-2-2-2----------------------------| 
D|------------7-7-7-7-7-7-2-2-2-2-2-2-2-2-2-2-2-2----------------------------| 
... ... ... ... ... ... ... ... 

Chorus Cont'd: 
e|---------------------------------------------------------------------------| 
B|---------------------------------------------------------------------------| 
G|7-7-7-7-7-7-7-7---------------------------------13-13-13-13-13-13-13-13----| 
D|7-7-7-7-7-7-7-7-7-7-7-7-7-7-7-7-2-2-2-2-2-2-2-2--x--x--x--x--x--x--x--x----| 
A|5-5-5-5-5-5-5-5-7-7-7-7-7-7-7-7-2-2-2-2-2-2-2-2-11-11-11-11-11-11-11-11----| 
D|----------------7-7-7-7-7-7-7-7-2-2-2-2-2-2-2-2----------------------------| 

Repeat Intro Cont'd 

Verse - Play same thing as Guitar One 

Repeat Chorus 

Solo: 
e|---------------------------------------------------------------------------| 
B|---------------------------------------------------------------------------| 
G|---------------------------------------------------------------------------| 
D|---------------------------------------------------------------------------| 
A|-4-4-4-4-4-4-4-4-2-2-2-2-2-2-2-2-2-2-2-2-2-2-2-2-4-4-4-4-4-4-4-4-4-4-4-4-4-| 
D|-4-4-4-4-4-4-4-4-1-1-1-1-1-1-1-1-2-2-2-2-2-2-2-2-3-3-3-3-3-3-3-3-4-4-4-4-4-| 

e|---------------------------------------------------------------------------| 
B|---------------------------------------------------------------------------| 
G|---------------------------------------------------------------------------| 
D|---------------------------------------------------------------------------| 
A|-4-4-4-2-2-2-2-2-2-2-2-2-2-2-2-2-2-2-2-4-4-4-4-4-4-4-4-4-4-4--4-4-4--4-7-7-| 
D|-4-4-4-1-1-1-1-1-1-1-1-2-2-2-2-2-2-2-2-3-3-3-3-3-3-3-3-4-4-4--4-4-4--4-6-6-| 

e|---------------------------------------------------------------------------| 
B|---------------------------------------------------------------------------| 
G|----------------------------------------------------------------------9-9-9| 
D|----------------------------------------------------------------------9-9-9| 
A|-7-7-7--7-7-7--7-7-7--7-9-9--9-9-9--9-2-2-2-2-2-2-2-2-2-2-2-2-2-2-2-2-7-7-7| 
D|-6-6-6--6-7-7--7-7-7--7-9-9--9-9-9--9-2-2-2-2-2-2-2-2-2-2-2-2-2-2-2-2------| 

e|---------------------------------------------------------------------------| 
B|---------------------------------------------------------------------------| 
G|-9-9-9-9-9-9-9-9-9-9-9-9-9x------------------------------------------------| 
D|-9-9-9-9-9-9-9-9-9-9-9-9-9x------------------------------------------------| 
A|-7-7-7-7-7-7-7-7-7-7-7-7-7x------------------------------------------------| 
D|---------------------------------------------------------------------------| 

Part After Solo: (Violin and drums only) 

Repeat Chorus a lot 

Ending: 
e|----0-----0-------------0-----0--------------------------------------------| 
B|----------------0~--------------0~-----------------------------------------| 
G|--2-----2-----1-------2-----2---1~-----------------------------------------| 
D|4-----2-----2-------4-----2-----2~-----------------------------------------| 
A|---------------------------------------------------------------------------| 
D|---------------------------------------------------------------------------| 

That's it everyone. Cool cover song. E-mail us with any questions, comments, 
etc. 





Comments


Popular Yellowcard tabs & chords
Light Up The Sky Bass Tabs
Takedown Bass Tabs
Believe 3 Chords
Life Of A Salesman Chords
Life Of Leaving Home Chords
Ten Chords
Believe 2 Tabs
Rock Star Land (Intro) Tabs
Southern Air Tabs
Rough Draft Ukulele


Song lyrics



↑ Back to top | Tablatures and chords are parodies/interpretations of the original songs. You may use it for private study, scholarship, research or language learning purposes only
© 2014 AZChords.com Contact us | Privacy policy | DMCA | Add/correct tabs | Request tabs | Top 50 tabs