» » »

Empty Apartment Tabs (ver.4)

Artists:  A B C D E F G H I J K L M N O P Q R S T U V W X Y Z # 

Empty Apartment Tabs (ver.4)

Yellowcard
Rating:
0/5 (0 votes)

Hard to play? Try these video lessons and learn fast.
                empty apartment
yellowcard
ocean avenue


standard tuning

      intro, verses, solo (interlude)
e|-------33333----33-3333-xxxxx-|-1111111~-|
B|-11111-33333----33-3333-33333-|-1111111~-|
G|-22222-00000----00-0000-22222-|-2222221~-|
D|-22222-22222----00-0000-00000-|-3333333~-|
A|-------33333-0h22222222-00000-|-3333333~-|
E|------------------33333-22222-|-1111111~-|
          

           chorus
e|-00000-00000-00000-1111111-|
B|-11111-11111-11111-1111111-|
G|-00000-00000-22222-2222222-|
D|-22222-00000-22222-3333333-|
A|-33333-22222-00000-3333333-|
E|-------------------1111111-|


                          solo (interlude)
e|------------------------------------8-----------------------|
B|-7-5-7~~5-7-5--5/9-9-7-9-7-7/5-7b(9)-7-7p5-5----------------|
G|--------------7---------------------------7-7~~-------------|
D|------------------------------------------------------------|
A|------------------------------------------------------------|
E|------------------------------------------------------------|

e|------------------------------------------------------------|
B|------------------------------------------------------------|
G|------------------------------------------------------------|
D|------------------------------------------------------------|
A|-7h10101010p999p77-5h7--------------------------------------|
E|------------------------------------------------------------|

     ending verse
e|---------------------|
B|---------------------|
G|-5555-4444-2222------|
D|-5555-5555-2222-3333-|
A|-3333-2222-0000-3333-|
E|----------------1111-|


start of last chorus starts on 2nd chord
e|----------------------|
B|----------------------|
G|-444444-222222--------|
D|-555555-222222-333333-|
A|-222222-000000-333333-|
E|---------------111111-|


     play this until the end
e|----------------------------------|
B|----------------------------------|
G|-5555555-4444444-2222222----------|
D|-5555555-5555555-2222222-33333333-|
A|-3333333-2222222-0000000-33333333-|
E|-------------------------11111111-|
            
Hard to play? Try these video lessons and learn fast. | Correct




comments powered by Disqus
↑ Back to top | Tablatures and chords are parodies/interpretations of the original songs. You may use it for private study, scholarship, research or language learning purposes only