» » »

Empty Apartment Tabs (ver.2)

Artists:  A B C D E F G H I J K L M N O P Q R S T U V W X Y Z # 

Empty Apartment Tabs (ver.2)

Yellowcard
Rating:
0/5 (0 votes)

Hard to play? Try these video lessons and learn fast.
                Tuning: Standard        
                
T= using your thumb to push down on the fret                                

GUITAR 1
-----------
Intro: "Called me out..."
e|---------------------------------------------------------------------------|
B|---1--1-----1----1--1-----1------1--1----1--1--3-3-3-3---------------------|
G|---2--2-----2----0--0-----0------0--0----0--0--2-2-2-2---------------------|
D|---2--2-----2----2--2-----2------0--0----0--0--0-0-0-0---------------------|
A|-0-------0-----3-------3----0h2--------------------------------------------|
E|---------------------------------------3----------------2------------------|
                                                          T 

e|-------------------------------------------------------------1-1-1-1-------| X2
B|---1--1-----1----1--1-----1------1--1----1--1---3-3-3-3------1-1-1-1-------|
G|---2--2-----2----0--0-----0------0--0----0--0---2-2-2-2------2-2-2-2-------|
D|---2--2-----2----2--2-----2------0--0----0--0---0-0-0-0------3-3-3-3-------|
A|-0-------0-----3-------3----0h2------------------------------3-3-3-3-------|
E|---------------------------------------3------2----------2---1-1-1-1-------|
                                                T          T 

Chorus: "Away..."
e|---------------------------------------------------------------------------|
B|-1-1-1-1-1-1-1-1-1-1--1-1-1-1-1-1-1-1-1-1--1-1-1-1-1-1-1-1-1-1-------------|
G|-0-0-0-0-0-0-0-0-0-0--0-0-0-0-0-0-0-0-0-0--2-2-2-2-2-2-2-2-2-2-------------|
D|-2-2-2-2-2-2-2-2-2-2--0-0-0-0-0-0-0-0-0-0--2-2-2-2-2-2-2-2-2-2-------------|
A|-3-3-3-3-3-3-3-3-3-3--2-2-2-2-2-2-2-2-2-2--0-0-0-0-0-0-0-0-0-0-------------|
E|------------------------------3-3-3-3-3-3----------------------------------|

e|-1-1-1-1-1-1-1-1-1-1-------------------------------------------------------| X2
B|-1-1-1-1-1-1-1-1-1-1-------------------------------------------------------|
G|-2-2-2-2-2-2-2-2-2-2-------------------------------------------------------|
D|-3-3-3-3-3-3-3-3-3-3-------------------------------------------------------|
A|-3-3-3-3-3-3-3-3-3-3-------------------------------------------------------|
E|-1-1-1-1-1-1-1-1-1-1-------------------------------------------------------|


Interlude: Repeat the Intro X2


Verse: "Wakin' Up..."
e|----0--------------------0-------------------------------------------------|
B|-----1-----1------1-----3--3-----------------------------------------------|
G|---2--2---0-0----0-0---2----2----------------------------------------------|
D|--2------2---2--0---0------------------------------------------------------|
A|-0------3------2------0----------------------------------------------------|
E|---------------------------------------------------------------------------|

e|----0--------------------0-------1-1-1-1-1-1-1-1-1-1-----------------------|
B|-----------1------1-----3--3-----1-1-1-1-1-1-1-1-1-1-----------------------|
G|---2-2----0-0----0-0---2----2----2-2-2-2-2-2-2-2-2-2-----------------------|
D|--2---2--2---2--0---0------------3-3-3-3-3-3-3-3-3-3-----------------------|
A|-0------3------2------0----------3-3-3-3-3-3-3-3-3-3-----------------------|
E|---------------------------------1-1-1-1-1-1-1-1-1-1-----------------------|


Repeat Chorus


Bridge: "It's ok..." (No guitar 1)


Bridge Cont'd: "When you get lonely..." 
e|---------------------------------------------------------------------------| X3
B|---------------------------------------------------------------------------|
G|-5-5-5-5-------------------------------------------------------------------|
D|-5-5-5-5----5-5-5-5----7-7-7-7----3-3-3-3----------------------------------|
A|-3-3-3-3----2-2-2-2----7-7-7-7----3-3-3-3----------------------------------|
E|------------3-3-3-3----5-5-5-5----1-1-1-1----------------------------------|


Bridge Cont'd:
e|---------------------------------------------------------------------------| X2
B|---------------------------------------------------------------------------|
G|-5-5-5-5-5-5--5-5-5-5-5-5--------------------------------------------------|
D|-5-5-5-5-5-5--5-5-5-5-5-5--7-7-7-7-7-7--3-3-3-3-3-3------------------------|
A|-3-3-3-3-3-3--2-2-2-2-2-2--7-7-7-7-7-7--3-3-3-3-3-3------------------------|
E|--------------------3-3-3--5-5-5-5-5-5--1-1-1-1-1-1------------------------|


Chorus: "From that empty..." (Start on the second chord of the very last Bridge                                     
                              Cont'd for the last chorus)



GUITAR 2
-----------
Intro: "Called me out..." (you can just double the 1st guitar)



Chorus: "Away..." (you can double the 1st guitar again)


Interlude: (ok, I think he uses a slide but i don't have a slide.
            He also uses this fuzzy distortion so if you have that 
            That would be good.)
e|---------------------------------------------------------------------------|
B|----------------------------------------------------8----------------------|
G|-7-5-5-5/7--5/7\5/7\5-------5/9--/9\7/9\7--/7\5--7b----7bp5---5------------|
D|-----------------------/7-7---------------------------------7---7----------|
A|---------------------------------------------------------------------------|
E|---------------------------------------------------------------------------|

e|---------------------------------------------------------------------------|
B|---------------------------------------------------------------------------|
G|---------------------------------------------------------------------------|
D|-7h10-10-10-10p9-9--5h7----------------------------------------------------|
A|---------------------------------------------------------------------------|
E|---------------------------------------------------------------------------|


Verse: "Wakin' up..." (you can just double the 1st guitar)


Chorus: "Take you away..." (you can double the 1st guitar)


Bridge: (I don't quite have the bridge down yet but it will be up here)


Bridge Cont'd: "When you get lonely..."
e|---------------------------------------------------------------------------|
B|---------------------------------------------------------------------------|
G|-12------------------------5-----------------------------------------------|
D|-x--(Strum-a-whole-buch)---x-----------------------------------------------|
A|-10------------------------3-----------------------------------------------|
E|---------------------------------------------------------------------------|


Bridge Cont'd: [If you are playing this song with two guitars, it sounds cool
                to have one guitar play the open chords and the other guitar 
                play the power chords. So you could play this part with open 
                chords(same open chords as the very first chorus).]



(The rest of the song you can double the first guitar)


----------------------------------------------------
I just updated this (11/29/03).
            
Hard to play? Try these video lessons and learn fast. | Correct




comments powered by Disqus
↑ Back to top | Tablatures and chords are parodies/interpretations of the original songs. You may use it for private study, scholarship, research or language learning purposes only