» » »

Yellowcard, Dear Bobbie Tabs (ver.1)

Artists:  A B C D E F G H I J K L M N O P Q R S T U V W X Y Z # 

Dear Bobbie Tabs (ver.1)

Yellowcard Tabs
 Rating:
4/5 (4 votes)
Dear Bobbie lessons Tabs too difficult? Try these video lessons and learn fast
                Guitar 1- { e b g d A E )

Guitar=Piano- { e b g d A E )
Intro-

Dear Bobbie,

Do you remember when you were young and very pretty? I do, I remember pleated skirts,
black and white sattle shoes. Do you remember dancing that night?
I do, I still think of you when we dance, although we cant jitterbug as we did then.


Guitar1
|---0-0-000-0-0-000---0-0-000-0-0-000----|
|---1-1-111-1-1-111---0-0-000-0-0-000----|
|---0-0-000-0-0-000---0-0-000-0-0-000----|
|---2-2-222-2-2-222---2-2-222-2-2-222----|4x
|---3-3-333-3-3-333---2-2-222-2-2-222----|
|---------------------0-0-000-0-0-000----|

Guitar=Piano
|--12-10--8---7---7----------------|  ---8----|
|----------------------------------|  --------|
|----------------------------------|4x--------|
|----------------------------------|  --------|
|----------------------------------|  --------|
|----------------------------------|  --------|




Verse-
Do you remember when
How long has it been?
1945 you opened my blue eyes
To see a whole new life

Guitar1

|-0-0-000-0-0-000-0--0-000-0-0-000-|  |-1-1-111-1-1-111--3-3-333-3-3-333--|
|-1-1-111-1-1-111-1--1-111-1-1-111-|  |-1-1-111-1-1-111--3-3-333-3-3-333--|
|-0-0-000-0-0-000-2--2-222-2-2-222-|  |-2-2-222-2-2-222--4-4-444-4-4-444--|
|-2-2-222-2-2-222-2--2-222-2-2-222-|2x|-3-3-333-3-3-333--5-5-555-5-5-555--|
|-3-3-333-3-3-333-0--0-000-0-0-000-|  |-3-3-333-3-3-333--5-5-555-5-5-555--|
|----------------------------------|  |-1-1-111-1-1-111--3-3-333-3-3-333--|


Guitar=Piano
|-----3-------3------3--------3----|  |-----5------5----|----3-------3---|
|---5--5----5--5---5---5----5---5--|  |---6---6--6---6--|--5---5---5--5--|
|-5-------5------5--------5--------|  |-5-------5-------|-5------5-------|
|----------------------------------|  |-----------------|----------------|
|----------------------------------|  |-----------------|----------------|
|----------------------------------|  |-----------------|----------------|


Do you remember when
I told you this that night,
That if you're by my side
When everyday begins
I'll fall for you again
I made a promise when

Guitar1
|-0-0-000-0-0-000-0--0-000-0-0-000-|  |-1-1-111-1-1-111--3-3-333-3-3-333--|
|-1-1-111-1-1-111-1--1-111-1-1-111-|  |-1-1-111-1-1-111--3-3-333-3-3-333--|
|-0-0-000-0-0-000-2--2-222-2-2-222-|  |-2-2-222-2-2-222--4-4-444-4-4-444--|
|-2-2-222-2-2-222-2--2-222-2-2-222-|2x|-3-3-333-3-3-333--5-5-555-5-5-555--|
|-3-3-333-3-3-333-0--0-000-0-0-000-|  |-3-3-333-3-3-333--5-5-555-5-5-555--|
|----------------------------------|  |-1-1-111-1-1-111--3-3-333-3-3-333--|


Guitar=Piano
|-----3-------3------3--------3----|  |-----5------5----|----3-------3---|
|---5--5----5--5---5---5----5---5--|  |---6---6--6---6--|--5---5---5--5--|
|-5-------5------5--------5--------|  |-5-------5-------|-5------5-------|
|----------------------------------|  |-----------------|----------------|
|----------------------------------|  |-----------------|----------------|
|----------------------------------|  |-----------------|----------------|

Refrain-
I told you this that night..And I'll be fine

Guitar1
|--1-1--111--1-1--111--------1-1-111-1-1-111-----------|
|--1-1--111--1-1--111--------1-1-111-1-1-111-----------|
|--2-2--222--2-2--222--------2-2-222-2-2-222-----------|
|--3-3--333--3-3--333--------3-3-333-3-3-333-----------|
|--3-3--333--3-3--333--------3-3-333-3-3-333-----------|
|--1-1--111--1-1--111--------1-1-111-1-1-111-----------|


Guitar=Piano
|--1-1--1-1--1-1--1-1--------1-1-1-1-1-1-1-1-----------|
|--1-1--1-1--1-1--1-1--------1-1-1-1-1-1-1-1-----------|
|--2-2--2-2--2-2--2-2--------2-2-2-2-2-2-2-2-----------|
|--3-3--3-3--3-3--3-3--------3-3-3-3-3-3-3-3-----------|?
|------------------------------------------------------|
|------------------------------------------------------|



Chorus-
Cause when I die, then I die loving you
It's alright, I'll be fine

Guitar1
|-0-0--00-3-3-33--0-0-00-0-0-00-1-1--111--1-1--111--1-1--111--1-1--111--|
|-1-1--11-3-3-33--1-1-11-1-1-11-1-1--111--1-1--111--1-1--111--1-1--111--|
|-0-0--00-4-4-44--2-2-22-2-2-22-2-2--222--2-2--222--2-2--222--2-2--222--|
|-2-2--22-5-5-55--2-2-22-2-2-22-2-2--222--2-2--222--2-2--222--2-2--222--|
|-3-3--33-5-5-55--0-0-00-0-0-00-2-2--222--2-2--222--2-2--222--2-2--222--|
|---------3-3-33----------------1-1--111--1-1--111--1-1--111--1-1--111--|

Guitar=Piano
|--8-----8-10----7---7--8----8----8-10--8----8-10------|---1-1-1-1-1-1-1-|
|-----8------------8-----------10----------10----------|---1-1-1-1-1-1-1-|
|------------------------------------------------------|---2-2-2-2-2-2-2-|
|------------------------------------------------------|---3-3-3-3-3-3-3-|
|------------------------------------------------------|-----------------|
|------------------------------------------------------|-----------------|


Cause when I die................ Loving you.......... ...............

Guitar1
|-0-0--00-3-3-33--0-0-00-0-0-00-1-1--111--1-1--111-1-1--111--1-1--111--|
|-1-1--11-3-3-33--1-1-11-1-1-11-3-3--333--3-3--333-1-1--111--1-1--111--|
|-0-0--00-4-4-44--2-2-22-2-2-22-2-2--222--2-2--222-2-2--222--2-2--222--|
|-2-2--22-5-5-55--2-2-22-2-2-22-0-0--000--0-0--000-2-2--222--2-2--222--|
|-3-3--33-5-5-55--0-0-00-0-0-00--------------------2-2--222--2-2--222--|
|---------3-3-33-----------------------------------1-1--111--1-1--111--|



Guitar=Piano
|--8-----8-10----7---7--8----8----8-10--8----8-10------|-13-12-10-8-8-8-----|
|-----8------------8-----------10----------10----------|---------------10-8-|
|------------------------------------------------------|--------------------|
|------------------------------------------------------|--------------------|
|------------------------------------------------------|--------------------|
|------------------------------------------------------|--------------------|

loving you...
Do you remember the times we would give up on eachother and get back together,then we 
was married in 1949. We drove the yellow convertible all night long.Do you remember? I do.

Guitar1
|---0-0-000-0-0-000---0-0-000-0-0-000----|
|---1-1-111-1-1-111---0-0-000-0-0-000----|
|---0-0-000-0-0-000---0-0-000-0-0-000----|
|---2-2-222-2-2-222---2-2-222-2-2-222----|4x
|---3-3-333-3-3-333---2-2-222-2-2-222----|
|---------------------0-0-000-0-0-000----|

Guitar=Piano
|--12-10--8---7---7----------------| 
|----------------------------------|  
|----------------------------------|4x
|----------------------------------| 
|----------------------------------| 
|----------------------------------| 

Do verse 1x Then Refrain  ,Chorus


Intelude-

Guitar1
|-0-0-000-0-0-000-0--0-000-0-0-000-|  |-1-1-111-1-1-111--3-3-333-3-3-333--|
|-1-1-111-1-1-111-0--0-000-0-0-000-|  |-1-1-111-1-1-111--3-3-333-3-3-333--|
|-0-0-000-0-0-000-0--0-000-0-0-000-|  |-2-2-222-2-2-222--4-4-444-4-4-444--|
|-2-2-222-2-2-222-2--2-222-2-2-222-|3x|-3-3-333-3-3-333--5-5-555-5-5-555--|
|-3-3-333-3-3-333-2--2-222-2-2-222-|  |-3-3-333-3-3-333--5-5-555-5-5-555--|
|-----------------0--0-000-0-0-000-|  |-1-1-111-1-1-111--3-3-333-3-3-333--|


Guitar=Piano
|--12-10--8---7---7----------------| 
|----------------------------------|  
|----------------------------------|4x
|----------------------------------| 
|----------------------------------| 
|----------------------------------| 


Bridge-verse-

I'm coming home to you
Stepping off my shoes
Resting in my chair
See you standing there
The silver in your hair

Guitar1
|----0------0------0-----0-----0-----0-----1-----3-------|
|----1------1------1-----1-----1-----1-----1-----3-------|
|----0------2------0-----2-----0-----2-----2-----4-------|
|----2------2------2-----2-----2-----2-----3-----5-------|
|----3------0------3-----0-----3-----0-----3-----5-------|
|------------------------------------------1-----3-------|


Guitar=Piano
|-----3-------3------3--------3----|  |-----5------5----|----3-------3---|
|---5--5----5--5---5---5----5---5--|  |---6---6--6---6--|--5---5---5--5--|
|-5-------5------5--------5--------|  |-5-------5-------|-5------5-------|
|----------------------------------|  |-----------------|----------------|
|----------------------------------|  |-----------------|----------------|
|----------------------------------|  |-----------------|----------------|



Do verse1x,ref,chorus,Intro

End with--

|-0-|
|-1-|
|-0-|
|-2-|
|-3-|
|---|


this is a very f**kin' Song..hahah..
            
Submit corrections

comments powered by Disqus
↑ Back to top | Yellowcard Tabs for Dear Bobbie. Lyrics for acoustic guitar and electric guitar. Tablatures and chords are parodies/interpretations of the original songs. You may use it for private study, scholarship, research or language learning purposes only