>
 >
Cut Me, Mick

Cut Me, Mick Guitar Tabs

Yellowcard - Cut Me, Mick chords, tabs, tablatures, lyrics

Guitar lessons | Add/correct | Request | Top 50 tabs Artists:  A B C D E F G H I J K L M N O P Q R S T U V W X Y Z 0-9

Cut Me, Mick Guitar Tabs – Yellowcard

CD, Sheet music, Poster

Do you like Cut Me, Mick? Share with your friends now
Bass TabsChordsTabs

Tuning: D A D G b e

-=GUITAR ONE=- (Ryan Mendez)

INTRO: 0:00-0:16
e|---------------------------------------------------------------------------|
B|---------------------------------------------------------------------------|
G|--------------------------------------------------------------------4------|
D|-555-0---5p0---4p0---0h2p0---2p0---------5p0---4p0---0h2p0---2--555-4------|
A|-555-0-----------------------------4h5--------------------------555-2------|
D|-555-0-------0-----0-------0-----0-----0-----0-----0-------0----555--------|

e|---------------------------------------------------------------------------|
B|---------------------------------------------------------------------------|
G|---------------------------------------------------------------------------|
D|-5p0---4p0---0h2p0---2p0---------5p0---4p0---0h2p0---2--555-0-5p0--4p0-----|
A|---------------------------4h5--------------------------555-0--------------|
D|-----0-----0-------0-----0-----0-----0-----0-------0----555-0-----0----0---|

e|---------------------------------------------------------------------------|
B|---------------------------------------------------------------------------|
G|---------------------------------------------------------------------------|
D|-0h2p0---2p0--------5p0---4p0---0h2p0---2p0-------0~-----------------------|
A|---------------4h5----------------------------4h5-0~-----------------------|
D|-------0-----0-----0----0-----0-------0-----0-----0~-----------------------|


VERSE 1: 0:27-0:39 "Some place, somewhere behind me..."
e|------------------------------------------------------------------------------|
B|------------------------------------------------------------------------------|
G|------------------------------------------------------------------------------|
D|----------------------------------------------------------------0-0-0-0-0-0-0-|
A|-5-/-12-12-12-14-14-14-10-10-10-9-9-9-9-9-9-9-7-7-7-9-9-9-5-5-5-4-4-4-4-4-4-4-|
D|------------------------------------------------------------------------------|

e|---------------------------------------------------------------------------|
B|---------------------------------------------------------------------------|
G|---------------------------------------------------------------------------|
D|-0-0-0-0-0-0-0-0-0-0-0-0-0-0-0-0-0-0-0-0-0-0-0-0-0-0-0-0-0-0-0-0-----------|
A|-2-2-2-4-4-4-5-5-5-5-5-5-5-5-5-5-2-2-2-4-4-4-5-5-5-5-5-5-5-5-5-5-4-4-4-----|
D|---------------------------------------------------------------------------|

e|---------------------------------------------------------------------------|
B|---------------------------------------------------------------------------|
G|---------------------------------------------------------------------------|
D|---------------------------------------------------------------------------|
A|-5-5-5-7-7-7-7-7-7---------------------------------------------------------|
D|---------------------------------------------------------------------------|

CHORUS: 0:40-1:01 "You are the one that I need..."
e|---------------------------------------------------------------------------|
B|---------------------------------------------------------------------------|
G|---------------------------------------------------------------------------|
D|-555-0-00-0-0-0-0-555-0-00-0-0-0-0-555-9-99-9-9-9-9-777-9-99-9-9-9-9-777---|
A|-555-0-00-0-0-0-0-555-0-00-0-0-0-0-555-9-99-9-9-9-9-777-9-99-9-9-9-9-777---|
D|-555-0-00-0-0-0-0-555-0-00-0-0-0-0-555-9-99-9-9-9-9-777-9-99-9-9-9-9-777---|

e|---------------------------------------------------------------------------|
B|---------------------------------------------------------------------------|
G|-1111111111111111111111116-6-6-7-7-7-7-7-7-7-7-7-7-7-7-7-7-7-7-14-14-14-14-|
D|-x-x-x-x-x-x-x-x-x-x-x-x-x-x-x-x-x-x-x-x-x-x-x-x-x-x-x-x-x-x-x-x--x--x--x--|
A|-9-9-9-9-9-9-9-9-9-9-9-9-4-4-4-5-5-5-5-5-5-5-5-5-5-5-5-5-5-5-5-12-12-12-12-|
D|---------------------------------------------------------------------------|

e|----------------------------------------------------------------------------|
B|----------------------------------------------------------------------------|
G|-14-14-14-14-14-14-14-14-14-7-7-7-14-14-14-14-14-14-14-14-14-14-14-14-14-14-|
D|-x--x--x--x--x--x--x--x--x--x-x-x-x--x--x--x--x--x--x--x--x--x--x--x--x--x--|
A|-12-12-12-12-12-12-12-12-12-5-5-5-12-12-12-12-12-12-12-12-12-12-12-12-12-12-|
D|----------------------------------------------------------------------------|

e|---------------------------------------------------------------------------|
B|---------------------------------------------------------------------------|
G|-14-14---------------------------------------------------------------------|
D|-x--x--0~------------------------------------------------------------------|
A|-12-12-0~------------------------------------------------------------------|
D|-------0~------------------------------------------------------------------|

VERSE 2: 1X 1:04-1:26 "When I thought that I might..."
e|------------------------------------------------------------------------------|
B|------------------------------------------------------------------------------|
G|------------------------------------------------------------------------------|
D|----------------------------------------------------------------0-0-0-0-0-0-0-|
A|-5-/-12-12-12-14-14-14-10-10-10-9-9-9-9-9-9-9-7-7-7-9-9-9-5-5-5-4-4-4-4-4-4-4-|
D|------------------------------------------------------------------------------|

e|------------------------------------------------------------------------------|
B|------------------------------------------------------------------------------|
G|------------------------------------------------------------------------------|
D|-0-0-0-0-0-0-0-0-0-0-0-0-0-0-0-0-0-0-0-0-0-0-0-0-0-0-0-0----------------------|
A|-2-2-2-4-4-4-5-5-5-5-5-5-5-5-2-2-2-4-4-4-5-5-5-5-5-5-5-5-12-12-12-12-14-14-14-|
D|------------------------------------------------------------------------------|

e|------------------------------------------------------------------------------|
B|------------------------------------------------------------------------------|
G|------------------------------------------------------------------------------|
D|------------------------------------------0-0-0-0-0-0-0-0-0-0-0-0-0-0-0-0-0-0-|
A|-10-10-10-9-9-9-9-9-9-9-7-7-7-9-9-9-5-5-5-4-4-4-4-4-4-4-2-2-2-4-4-4-5-5-5-5-5-|
D|------------------------------------------------------------------------------|

e|------------------------------------------------------------------------------|
B|------------------------------------------------------------------------------|
G|------------------------------------------------------------------------------|
D|-0-0-0-0-0-0-0-0-0-0-0-0-0-0-0------------------------------------------------|
A|-5-5-5-2-2-2-4-4-4-5-5-5-5-5-5------------------------------------------------|
D|------------------------------------------------------------------------------|

CHORUS: 1:26-1:47 "You are the one that I need..."
e|---------------------------------------------------------------------------|
B|---------------------------------------------------------------------------|
G|---------------------------------------------------------------------------|
D|-555-0-00-0-0-0-0-555-0-00-0-0-0-0-555-9-99-9-9-9-9-777-9-99-9-9-9-9-777---|
A|-555-0-00-0-0-0-0-555-0-00-0-0-0-0-555-9-99-9-9-9-9-777-9-99-9-9-9-9-777---|
D|-555-0-00-0-0-0-0-555-0-00-0-0-0-0-555-9-99-9-9-9-9-777-9-99-9-9-9-9-777---|

e|---------------------------------------------------------------------------|
B|---------------------------------------------------------------------------|
G|-1111111111111111111111116-6-6-7-7-7-7-7-7-7-7-7-7-7-7-7-7-7-7-14-14-14-14-|
D|-x-x-x-x-x-x-x-x-x-x-x-x-x-x-x-x-x-x-x-x-x-x-x-x-x-x-x-x-x-x-x-x--x--x--x--|
A|-9-9-9-9-9-9-9-9-9-9-9-9-4-4-4-5-5-5-5-5-5-5-5-5-5-5-5-5-5-5-5-12-12-12-12-|
D|---------------------------------------------------------------------------|

e|----------------------------------------------------------------------------|
B|----------------------------------------------------------------------------|
G|-14-14-14-14-14-14-14-14-14-7-7-7-14-14-14-14-14-14-14-14-14-14-14-14-14-14-|
D|-x--x--x--x--x--x--x--x--x--x-x-x-x--x--x--x--x--x--x--x--x--x--x--x--x--x--|
A|-12-12-12-12-12-12-12-12-12-5-5-5-12-12-12-12-12-12-12-12-12-12-12-12-12-12-|
D|----------------------------------------------------------------------------|

e|---------------------------------------------------------------------------|
B|---------------------------------------------------------------------------|
G|-14-14---------------------------------------------------------------------|
D|-x--x--0~------------------------------------------------------------------|
A|-12-12-0~------------------------------------------------------------------|
D|-------0~------------------------------------------------------------------|

BRIDGE PT 1: Does not play

BRIDGE PT 2: 2:14-2:25 "You are the one that I need..."
e|-----------------------------------------------------------------------------|
B|-----------------------------------------------------------------------------|
G|-----------------------------------------------------------------------------|
D|---5p0---4p0---0h2p0---2p0---------5p0---4p0---0h2p0---2p0-------------------|
A|-----------------------------4h5-----------------------------4h5-------------|
D|-0-----0-----0-------0-----0-----0-----0-----0-------0-----0-----------------|

e|-----------------------------------------------------------------------------|
B|-----------------------------------------------------------------------------|
G|-----------------------------------------------------------------------------|
D|---5p0---4p0---0h2p0---2p0---------5p0---4p0---0h2p0---2p0-------------------|
A|-----------------------------4h5-----------------------------4h5-------------|
D|-0-----0-----0-------0-----0-----0-----0-----0-------0-----0-----------------|

BRIDGE PT 3: 2:25-2:35
e|-----------------------------------------------------------------------------|
B|-----------------------------------------------------------------------------|
G|-----------------------------------------------------------------------------|
D|---9p0---7p0---4h5p4---5p4---2h4---9p0---7p0---4h5p4---5p4---2h4-------------|
A|-----------------------------------------------------------------------------|
D|-0-----0-----0-------0-----0-----0-----0-----0-------0-----0-----------------|

e|-----------------------------------------------------------------------------|
B|-----------------------------------------------------------------------------|
G|-----------------------------------------------------------------------------|
D|---9p0---7p0---4h5p4---5p4---2h4---9p0---7p0---4h5p4---5---------------------|
A|-----------------------------------------------------------------------------|
D|-0-----0-----0-------0-----0-----0-----0-----0-------0-----------------------|

CHORUS: 2:35-2:56 "You are the one that I need..."
e|---------------------------------------------------------------------------|
B|---------------------------------------------------------------------------|
G|---------------------------------------------------------------------------|
D|-555-0-00-0-0-0-0-555-0-00-0-0-0-0-555-9-99-9-9-9-9-777-9-99-9-9-9-9-777---|
A|-555-0-00-0-0-0-0-555-0-00-0-0-0-0-555-9-99-9-9-9-9-777-9-99-9-9-9-9-777---|
D|-555-0-00-0-0-0-0-555-0-00-0-0-0-0-555-9-99-9-9-9-9-777-9-99-9-9-9-9-777---|

e|---------------------------------------------------------------------------|
B|---------------------------------------------------------------------------|
G|-1111111111111111111111116-6-6-7-7-7-7-7-7-7-7-7-7-7-7-7-7-7-7-14-14-14-14-|
D|-x-x-x-x-x-x-x-x-x-x-x-x-x-x-x-x-x-x-x-x-x-x-x-x-x-x-x-x-x-x-x-x--x--x--x--|
A|-9-9-9-9-9-9-9-9-9-9-9-9-4-4-4-5-5-5-5-5-5-5-5-5-5-5-5-5-5-5-5-12-12-12-12-|
D|---------------------------------------------------------------------------|

e|---------------------------------------------------------------------------|
B|---------------------------------------------------------------------------|
G|-14-14-14-14-14-14-14-14-14-7-7-7-14-14-14-14-14-14-14-14-14-14-14-14------|
D|-x--x--x--x--x--x--x--x--x--x-x-x-x--x--x--x--x--x--x--x--x--x--x--x-------|
A|-12-12-12-12-12-12-12-12-12-5-5-5-12-12-12-12-12-12-12-12-12-12-12-12------|
D|-----------------------------------------------------------------------\12-|

OUTRO: 2:56-3:18 "You are the one that I need..."
e|-----------------------------------------------------------------------------|
B|-----------------------------------------------------------------------------|
G|-----------------------------------------------------------------------------|
D|---5p0---4p0---0h2p0---2p0---------5p0---4p0---0h2p0---2p0-------------------|
A|-----------------------------4h5-----------------------------4h5-------------|
D|-0-----0-----0-------0-----0-----0-----0-----0-------0-----0-----------------|

e|-----------------------------------------------------------------------------|
B|-----------------------------------------------------------------------------|
G|-----------------------------------------------------------------------------|
D|---5p0---4p0---0h2p0---2p0---------5p0---4p0---0h2p0---2p0-------------------|
A|-----------------------------4h5-----------------------------4h5-------------|
D|-0-----0-----0-------0-----0-----0-----0-----0-------0-----0-----------------|

e|-----------------------------------------------------------------------------|
B|-----------------------------------------------------------------------------|
G|-----------------------------------------------------------------------------|
D|---5p0---4p0---0h2p0---2p0---------5p0---4p0---0h2p0---2p0-------------------|
A|-----------------------------4h5-----------------------------4h5-------------|
D|-0-----0-----0-------0-----0-----0-----0-----0-------0-----0-----------------|

e|-----------------------------------------------------------------------------|
B|-----------------------------------------------------------------------------|
G|-----------------------------------------------------------------------------|
D|---5p0---4p0---0h2p0---2p0---------5p0---4p0---0h2p0---2p0-------0~----------|
A|-----------------------------4h5-----------------------------4h5-0~----------|
D|-0-----0-----0-------0-----0-----0-----0-----0-------0-----0-----0~----------|


-=GUITAR TWO=- (Ryan Key)

INTRO: 0:00-0:16
e|---------------------------------------------------------------------------|
B|---------------------------------------------------------------------------|
G|--------------------------------------------------------------------4------|
D|-555-0---5p0---4p0---0h2p0---2p0---------5p0---4p0---0h2p0---2--555-4------|
A|-555-0-----------------------------4h5--------------------------555-2------|
D|-555-0-------0-----0-------0-----0-----0-----0-----0-------0----555--------|

e|---------------------------------------------------------------------------|
B|---------------------------------------------------------------------------|
G|---------------------------------------------------------------------------|
D|-5p0---4p0---0h2p0---2p0---------5p0---4p0---0h2p0---2--555-0-5p0--4p0-----|
A|---------------------------4h5--------------------------555-0--------------|
D|-----0-----0-------0-----0-----0-----0-----0-------0----555-0-----0----0---|

e|---------------------------------------------------------------------------|
B|---------------------------------------------------------------------------|
G|---------------------------------------------------------------------------|
D|-0h2p0---2p0--------5p0---4p0---0h2p0---2p0-------0~-----------------------|
A|---------------4h5----------------------------4h5-0~-----------------------|
D|-------0-----0-----0----0-----0-------0-----0-----0~-----------------------|

VERSE 1: Does not play

CHORUS: 0:40-1:01 "You are the one that I need..."
e|---------------------------------------------------------------------------|
B|---------------------------------------------------------------------------|
G|---------------------------------------------------------------------------|
D|-555-0-00-0-0-0-0-555-0-00-0-0-0-0-555-9-99-9-9-9-9-777-9-99-9-9-9-9-777---|
A|-555-0-00-0-0-0-0-555-0-00-0-0-0-0-555-9-99-9-9-9-9-777-9-99-9-9-9-9-777---|
D|-555-0-00-0-0-0-0-555-0-00-0-0-0-0-555-9-99-9-9-9-9-777-9-99-9-9-9-9-777---|

e|---------------------------------------------------------------------------|
B|---------------------------------------------------------------------------|
G|---------------------------------------------------------------------------|
D|-0-00-0-0-0-0-555-0-00-0-0-0-0-555-9-99-9-9-9-9-777-9-99-9-9-9-9-777-0~----|
A|-0-00-0-0-0-0-555-0-00-0-0-0-0-555-9-99-9-9-9-9-777-9-99-9-9-9-9-777-0~----|
D|-0-00-0-0-0-0-555-0-00-0-0-0-0-555-9-99-9-9-9-9-777-9-99-9-9-9-9-777-0~----|

VERSE 2: 1:04-1:26 "When I thought that I might..."
e|------------------------------------------------------------------------------|
B|------------------------------------------------------------------------------|
G|------------------------------------------------------------------------------|
D|------------------------------------------------------------------------------|
A|-5-/-9-9-9-10-10-10-7-7-7-5-5-5-5-5-5-5-4-4-4-5-5-5-2-2-2-0-0-0-0-0-0-0-------|
D|------------------------------------------------------------------------------|

e|--------------------------------------------------------------------------------|
B|--------------------------------------------------------------------------------|
G|--------------------------------------------------------------------------------|
D|--------------------------------------------------------------------------------|
A|-5-5-5-7-7-7-9-9-9-9-9-9-9-9-9-9-5-5-5-7-7-7-9-9-9-7-7-7-7-7-7-7-9-9-9-10-10-10-|
D|--------------------------------------------------------------------------------|

e|------------------------------------------------------------------------------|
B|------------------------------------------------------------------------------|
G|------------------------------------------------------------------------------|
D|------------------------------------------------------------------------------|
A|-7-7-7-5-5-5-5-5-5-5-4-4-4-5-5-5-2-2-2-0-0-0-0-0-0-0-5-5-5-7-7-7-9-9-9-9-9-9--|
D|------------------------------------------------------------------------------|

e|------------------------------------------------------------------------------|
B|------------------------------------------------------------------------------|
G|------------------------------------------------------------------------------|
D|------------------------------------------------------------------------------|
A|-9-9-9-9-5-5-5-7-7-7-9-9-9-9-9-9----------------------------------------------|
D|------------------------------------------------------------------------------|

CHORUS: 1:26-1:47 "You are the one that I need..."
e|---------------------------------------------------------------------------|
B|---------------------------------------------------------------------------|
G|---------------------------------------------------------------------------|
D|-555-0-00-0-0-0-0-555-0-00-0-0-0-0-555-9-99-9-9-9-9-777-9-99-9-9-9-9-777---|
A|-555-0-00-0-0-0-0-555-0-00-0-0-0-0-555-9-99-9-9-9-9-777-9-99-9-9-9-9-777---|
D|-555-0-00-0-0-0-0-555-0-00-0-0-0-0-555-9-99-9-9-9-9-777-9-99-9-9-9-9-777---|

e|---------------------------------------------------------------------------|
B|---------------------------------------------------------------------------|
G|---------------------------------------------------------------------------|
D|-0-00-0-0-0-0-555-0-00-0-0-0-0-555-9-99-9-9-9-9-777-9-99-9-9-9-9-777-0~----|
A|-0-00-0-0-0-0-555-0-00-0-0-0-0-555-9-99-9-9-9-9-777-9-99-9-9-9-9-777-0~----|
D|-0-00-0-0-0-0-555-0-00-0-0-0-0-555-9-99-9-9-9-9-777-9-99-9-9-9-9-777-0~----|

BRIDGE PT 1: 1:48-2:14
e|---------------------------------------------------------------------------|
B|---------------------------------------------------------------------------|
G|---------------------------------------------------------------------------|
D|-5---5---5---5---7---7---7---7---0---0---0---0---0---0---0---0-------------|
A|---5---5---5---5---5---5---5---5---2---2---2---2---5---5---5---5-----------|
D|---------------------------------------------------------------------------|

  "I can't keep this together..."
e|---------------------------------------------------------------------------|
B|---------------------------------------------------------------------------|
G|---------------------------------------------------------------------------|
D|-5---5---5---5---7---7---7---7---0---0---0---0---0---0---0---0-------------|
A|---5---5---5---5---5---5---5---5---2---2---2---2---5---5---5---5-----------|
D|---------------------------------------------------------------------------|

e|---------------------------------------------------------------------------|
B|---------------------------------------------------------------------------|
G|---------------------------------------------------------------------------|
D|-5---5---5---5---7---7---7---7---0---0---0---0---0---0---0---0-------------|
A|---5---5---5---5---5---5---5---5---2---2---2---2---4---4---4---4-----------|
D|---------------------------------------------------------------------------|

e|---------------------------------------------------------------------------|
B|---------------------------------------------------------------------------|
G|---------------------------------------------------------------------------|
D|-5---5---5---5---7---7---7---7---0---0---0---0---0---0---0---0-------------|
A|---5---5---5---5---5---5---5---5---2---2---2---2---5---5---5---5-----------|
D|---------------------------------------------------------------------------|

e|---------------------------------------------------------------------------|
B|---------------------------------------------------------------------------|
G|---------------------------------------------------------------------------|
D|-5---5---5---5---7---7---7---7---0---0---0---0---0---0---0---0-------------|
A|---5---5---5---5---5---5---5---5---2---2---2---2---4---4---4---4-----------|
D|---------------------------------------------------------------------------|

BRIDGE PT 2: 2:14-2:25 "You are the one that I need..."
e|---------------------------------------------------------------------------|
B|---------------------------------------------------------------------------|
G|---------------------------------------------------------------------------|
D|-5---5---5---5---7---7---7---7---0---0---0---0---0---0---0---0-------------|
A|---5---5---5---5---5---5---5---5---2---2---2---2---5---5---5---5-----------|
D|---------------------------------------------------------------------------|

e|---------------------------------------------------------------------------|
B|---------------------------------------------------------------------------|
G|---------------------------------------------------------------------------|
D|-5---5---5---5---7---7---7---7---0---0---0---0---0---0---0---0-------------|
A|---5---5---5---5---5---5---5---5---2---2---2---2---4---4---4---4-----------|
D|---------------------------------------------------------------------------|

BRIDGE PT 3: 2:25-2:35
e|-----------------------------------------------------------------------------|
B|-----------------------------------------------------------------------------|
G|-----------------------------------------------------------------------------|
D|---5p0---4p0---0h2p0---2p0---------5p0---4p0---0h2p0---2p0-------------------|
A|-----------------------------4h5-----------------------------4h5-------------|
D|-0-----0-----0-------0-----0-----0-----0-----0-------0-----0-----------------|

e|-----------------------------------------------------------------------------|
B|-----------------------------------------------------------------------------|
G|-----------------------------------------------------------------------------|
D|---5p0---4p0---0h2p0---2p0---------5p0---4p0---0h2p0---2---------------------|
A|-----------------------------4h5---------------------------------------------|
D|-0-----0-----0-------0-----0-----0-----0-----0-------0-----------------------|

CHORUS: 2:35-2:56 "You are the one that I need..."
e|---------------------------------------------------------------------------|
B|---------------------------------------------------------------------------|
G|---------------------------------------------------------------------------|
D|-555-0-00-0-0-0-0-555-0-00-0-0-0-0-555-9-99-9-9-9-9-777-9-99-9-9-9-9-777---|
A|-555-0-00-0-0-0-0-555-0-00-0-0-0-0-555-9-99-9-9-9-9-777-9-99-9-9-9-9-777---|
D|-555-0-00-0-0-0-0-555-0-00-0-0-0-0-555-9-99-9-9-9-9-777-9-99-9-9-9-9-777---|

e|---------------------------------------------------------------------------|
B|---------------------------------------------------------------------------|
G|---------------------------------------------------------------------------|
D|-0-00-0-0-0-0-555-0-00-0-0-0-0-555-9-99-9-9-9-9-777-9-99-9-9-9-9-----------|
A|-0-00-0-0-0-0-555-0-00-0-0-0-0-555-9-99-9-9-9-9-777-9-99-9-9-9-9-----------|
D|-0-00-0-0-0-0-555-0-00-0-0-0-0-555-9-99-9-9-9-9-777-9-99-9-9-9-9--\12------|

OUTRO: 2:56-3:18 "You are the one that I need..."
e|------------------------------------------------------------------------------|
B|------------------------------------------------------------------------------|
G|------------------------------------------------------------------------------|
D|-55555555-77777777-99999999-00000000-55555555-77777777-99999999-00000000------|
A|-55555555-77777777-99999999-00000000-55555555-77777777-99999999-00000000------|
D|-55555555-77777777-99999999-00000000-55555555-77777777-99999999-00000000------|


e|------------------------------------------------------------------------------|
B|------------------------------------------------------------------------------|
G|------------------------------------------------------------------------------|
D|-55555555-77777777-99999999-00000000-55555555-77777777-99999999-00000000-0~---|
A|-55555555-77777777-99999999-00000000-55555555-77777777-99999999-00000000-0~---|
D|-55555555-77777777-99999999-00000000-55555555-77777777-99999999-00000000-0~---|


| /  slide up
| \  slide down
| h  hammer-on
| p  pull-off
| ~  vibrato
| +  harmonic
| x  Mute note





Comments


Popular Yellowcard tabs & chords
Everywhere Bass Tabs
Ocean Avenue 4 Chords
Only One 1 Chords
Sing For Me 3 Chords
Believe Tabs
Down On My Head Tabs
Inside Out Tabs
One Year, Six Months 2 Tabs
When Were Old Men 1 Tabs
October Nights Ukulele


Song lyrics



↑ Back to top | Tablatures and chords are parodies/interpretations of the original songs. You may use it for private study, scholarship, research or language learning purposes only
© 2014 AZChords.com Contact us | Privacy policy | DMCA | Add/correct tabs | Request tabs | Top 50 tabs