» » »

Yellowcard, Cut Me Mick Bass tabs (ver.1)

Artists:  A B C D E F G H I J K L M N O P Q R S T U V W X Y Z # 

Cut Me Mick Bass tabs (ver.1)

Yellowcard Tabs
Rating:
0/5 (0 votes)
Cut Me Mick lessons Tabs too difficult? Try these video lessons and learn fast
                
Intro (0:00-0:16)
G|--------------------------------------------------------------|
D|--------------------------------------------------------------|
A|--------------------------------------------------------------|
D|555-0000000000000000-555-9999999999999999-555-0000000000000000|

Verse (0:17-0:39)
G|--------------------------------------------------|
D|--------------------------------------------------|
A|----------------22222222222222222-0000000000000000|
D|000000000000000-----------------------------------|

G|----------------------------------------------------------------|
D|----------------------------------------------------------------|
A|----------------------------------------------------------------|
D|000000000000000-222222222222222-555555555555555-7777777777777777|

Chorus (0:40-1:01)
G|---------------------------------------------------------------------------|
D|---------------------------------------------------------------------------|
A|---------------------------------------------------------------------------|
D|555-0-000-0-0-0-0-555-0-000-0-0-0-0-555-9-999-9-9-9-9-777-9-999-9-9-9-9-777|x2

Verse (1:02-1:25)
G|--------------------------------------------------------------|
D|--------------------------------------------------------------|
A|-------------------------------222222222222222-000000000000000|
D|000000000000000-00000000000000--------------------------------|

G-------------------------------------|
D|------------------------------------|
A|------------------------------------|
D|00000000000000-22222222222222-5~~~~~|

Chorus (1:26-1:47)
G|---------------------------------------------------------------------------|
D|---------------------------------------------------------------------------|
A|---------------------------------------------------------------------------|
D|555-0-000-0-0-0-0-555-0-000-0-0-0-0-555-9-999-9-9-9-9-777-9-999-9-9-9-9-777|x2

Bridge 
(1:48-2:14)
G|---------------|
D|---------------|
A|---------------|
D|----SILENCE----|

Bridge Cont. (2:14-2:25)
G|-------------------------------|
D|-------------------------------|
A|-------------------------------|Or just play part of the riff below 
D|0000000000000000000000000000000|Whatever sounds good to you VVVVVVV

Bridge Cont. (2:25-2:35)
G|-----------------------------------------------------------------------------|
D|---5p0---4p0---0h2p0---2p0---------5p0---4p0---0h2p0---2p0-------------------|
A|-----------------------------4h5-----------------------------4h5-------------|
D|-0-----0-----0-------0-----0-----0-----0-----0-------0-----0-----------------|


G|-----------------------------------------------------------------------------|
D|---5p0---4p0---0h2p0---2p0---------5p0---4p0---0h2p0---2---------------------|
A|-----------------------------4h5---------------------------------------------|
D|-0-----0-----0-------0-----0-----0-----0-----0-------0-----------------------|

Chorus (2:36-2:56)
G|---------------------------------------------------------------------------|
D|---------------------------------------------------------------------------|
A|---------------------------------------------------------------------------|
D|555-0-000-0-0-0-0-555-0-000-0-0-0-0-555-9-999-9-9-9-9-777-9-999-9-9-9-9-777|

G|--------------------------------------------------------------------------------|
D|--------------------------------------------------------------------------------|
A|--------------------------------------------------------------------------------|
D|555-0-000-0-0-0-0-555-0-000-0-0-0-0-555-9-999-9-9-9-9-777-9-999-9-9-9-9-777-\12/|

Pre-Outro (2:56-3:17)
G|-----------------------------------|
D|-----------------------------------|
A|---------------------------55555555|
D|55555555-77777777-99999999---------|x4

Outro (3:17-3:34)

G|-----------------------------------------------------------------------------|
D|---5p0---4p0---0h2p0---2p0---------5p0---4p0---0h2p0---2p0-------------------|
A|-----------------------------4h5-----------------------------4h5-------------|
D|-0-----0-----0-------0-----0-----0-----0-----0-------0-----0-----------------|

G|-----------------------------------------------------------------------------|
D|---5p0---4p0---0h2p0---2p0---------5p0---4p0---0h2p0---2p0-------------------|
A|-----------------------------4h5-----------------------------4h5~~~~~~~~~~~~~|
D|-0-----0-----0-------0-----0-----0-----0-----0-------0-----0-----------------|

End

Legend
P=pull off
H=hammer on
~=let note ring
\=slide up
/=slide down
            
Submit corrections

comments powered by Disqus
↑ Back to top | Yellowcard Bass for Cut Me Mick. Lyrics for acoustic guitar and electric guitar. Tablatures and chords are parodies/interpretations of the original songs. You may use it for private study, scholarship, research or language learning purposes only