» » »

Yellowcard, City Of Devils Tabs (ver.2)

Artists:  A B C D E F G H I J K L M N O P Q R S T U V W X Y Z # 

City Of Devils Tabs (ver.2)

Yellowcard Tabs
 Rating:
4.6/5 (9 votes)
City Of Devils lessons Tabs too difficult? Try these video lessons and learn fast
                Band:                  Yellowcard

Intro/Verse:
e|--0-0-0-0-0-0-0--|
B|--3-3-3-3-3-3-3--|
G|--0-0-0-0-0-0-0--|
D|--2-4-2-0-0-2-4--|
A|--3-3-2-0-2-3-3--|
E|--x-x-0-2-3-x-x--|

(this is only when the other guitar comes in)
e|--3-3--|
B|--3-3--|
G|--0-0--|
D|--2-2--|
A|--2-3--|
E|--0-x--|

(GTR 02)
e|-------------------------------------------------------------------|
B|--12/--------------------------------------------------------------|
G|----12-14-------------------------------------12-12-12-12-11-12-14-|
D|---------14/12/14/12/14------------------------------------------14|
A|---------------------------10-10-9—10-12-12/14---------------------|
E|-------------------------------------------------------------------|


-VERSE (verse = intro)

When the music stops play this:
e|--0-0-0-0-0-0--|
B|--3-3-3-3-3-3--|
G|--0-0-0-0-0-0--|
D|--2-4-0-0-2-4--|
A|--3-3-0-2-3-3--|
E|--x-x-2-3-x-x--|

-Then keep going with the verse

Chorus:
e|--3-3-3-3-------3-3-3-3-3-3-3--|
B|--3-3-3-3-------3-3-3-3-3-3-3--|
G|--0-2-0-2-------0-2-2-0-2-2-0--|
D|--0-0-2-2—(x3)--0-0-0-2-2-0-2--|
A|--2-0-3-0-------2-0-2-3-0-2-3--|
E|--3-x-x-x-------3-x-x-x-X-x-x--|

Post Chorus:
e|--0-0-0-0-0-0--|
B|--3-3-3-3-3-3--|
G|--0-0-0-0-0-0--|
D|--2-4-0-0-2-4--|
A|--3-3-0-2-3-3--|
E|--x-x-2-3-x-x--|

-VERSE

-CHORUS

Chorus ends on:
-3-
-3-
-0-
-2-
-3-
-x-

Bridge:
e|--3-3--------3-3-1-1--------3--|
B|--3-3--------3-3-3-1--------3--|
G|--3-0--------3-0-3-2--------0--|
D|--1-0—-(x2)—-1-0-3-3—-(x3)—-0--|
A|--1-2--------1-2-1-3--------2--|
E|--x-3--------x-3-1-1--------3--|

After Bridge:
e|--0-0-0-0-0-0--|
B|--3-3-3-3-3-3--|
G|--0-0-0-0-0-0--|
D|--2-4-0-0-2-4--|
A|--3-3-0-2-3-3--|
E|--x-x-2-3-x-x--|

Chorus:
e|--3-3-3-3-------3-3-3-3--3-3-3-3--|
B|--3-3-3-3-------3-3-3-3--3-3-3-3--|
G|--0-2-0-2-------0-2-2-0--0-2-0-2--|
D|--0-0-2-2—(x2)--0-0-0-2--0-0-2-2--|
A|--2-0-3-0-------2-0-2-3--2-0-3-0--|
E|--3-x-x-x-------3-x-x-x--3-x-x-x--|

e|--3--3--3--3--3--3--3--3--3--3--3----3--3--3--|
B|--3--3--3--3--3--3--3--3--3--3--3----3--3--3--|
G|--0--2--0--2--0--2--2--0--2--2--0----2--2--0--|
D|--0--0--2--2--0--0--0--2--2--0--2----2--0--2--|
A|--2--0--3--0--2--0--2--3--0--2--3----0--2--3--|
E|--3--x--x--x--3--x--x--x--X--x--x----x--x--x--|
            
Submit corrections

comments powered by Disqus
↑ Back to top | Yellowcard Tabs for City Of Devils. Lyrics for acoustic guitar and electric guitar. Tablatures and chords are parodies/interpretations of the original songs. You may use it for private study, scholarship, research or language learning purposes only