>
 >
Cigarette 3

Cigarette 3 Guitar Tabs

Yellowcard - Cigarette 3 chords, tabs, tablatures, lyrics

Guitar lessons | Add/correct | Request | Top 50 tabs Artists:  A B C D E F G H I J K L M N O P Q R S T U V W X Y Z 0-9

Cigarette 3 Guitar Tabs – Yellowcard

CD, Sheet music, Poster

Do you like Cigarette 3? Share with your friends now
ChordsTabsTabs v2Tabs v3Tabs v4Ukulele
Yellowcard- "Cigarette"
Album- One for the Kids

DROP D TUNING (DADGBe)

Intro x1
e|-----------------------------|
B|-------------3---------------|
G|-7-6-7-2-4-2-2-7-6-7-11-9-11-|
D|-0-0-0-0-0-4-0-0-0-0-12-7-12-|
A|-0-0-0-0-0-0-0-0-0-0-12-7-12-|
D|-0-7-9-4-5-0-0-0-7-9--0-7--0-|


Verse 1
Watching the days burning out like a cigarette just a few drags to go       
e|--------------------------------------------------------------------|
B|------------------------------------------------------------------3-|
G|-7----------6------------7----------2----------4-------2----------2-| 
D|-0----------0------------0----------0----------0-------4----------0-|
A|-0----------0------------0----------0----------0-------0----------0-| 
D|-0----------7------------9----------4----------5-------0----------0-| 


  You built me up and you broke me down somehow
e|------------------------------------------------|
B|------------------------------------------------|
G|----7--------6----------7--------11----9-----11-|
D|----0--------0----------0--------12----7-----12-|
A|----0--------0----------0--------12----7-----12-| 
D|----0--------7----------9--------0-----7------0-|
 
   Everything just seemed so clear to me, nothing left to know
e|------------------------------------------------------------|
B|-----------------------------------------------------------3|
G|-7----6----------7---------2-----------4---------2---------2| 
D|-0----0----------0---------0-----------0---------4---------0|
A|-0----0----------0---------0-----------0---------0---------0| 
D|-0----7----------9---------4-----------5---------0---------0| 

 I'll love you right and I'll love you pure, right now
e|------------------------------------------------------|
B|------------------------------------------------------|
G|----7--------6--------------7--------11----9-------11-|
D|----0--------0--------------0--------12----7-------12-|
A|----0--------0--------------0--------12----7-------12-| 
D|----0--------7--------------9--------0-----7--------0-|



Pre-chorus
  How can you say, that it's too late ... To save us now
e|-------------------------------------------------------|
B|-------------------------------------------------------|
G|-2----2-----2---2--------------------------------------|
D|-4----5-----4---5----------------9----------------5----|
A|-0----0-----0---0----------------9----------------5----|
D|-0----0-----0---0----------------9----------------5----|


Chorus x2
And I would wait for you (oh), if you would wait for me (yeah)
e|-----------------------------------------------------------|
B|-----------------------------------------------------------|
G|-----------11---9---7----------------------7---11---9------|
D|-----------12---7---9----------------------7---12---7------|
A|-----------12---7---9----------------------7---12---7------|
D|-----------0----7---9----------------------5----0---7------|


Violin Solo


Verse 2 (same as Verse 1)
  Intoxicated the edge is serrated, so easily torn from the core
  I blushed the first time, but you blushed the last time my eyes in            your mind
  Regenerated these feelings of hatred, I long for your love evermore
  You built me up and you broke me down this time
           

Bridge
e|------------------------------------------------------|
B|------------------------------------------------------|
G|-7----9----7----9----2----2----2----2-----------------|
D|-5----7----5----7----4----5----4----5----9----5-------|
A|-5----7----5----7----0----0----0----0----9----5-------|
D|-5----7----5----7----0----0----0----0----9----5-------|


Chorus x2
  

Slowing Down
  
How can you say, that it's too late ... To save us now
e|-------------------------------------------------------|
B|-------------------------------------------------------|
G|-2----2-----2---2--------------------------------------|
D|-4----5-----4---5----------------9----------------5----|
A|-0----0-----0---0----------------9----------------5----|
D|-0----0-----0---0----------------9----------------5----|

  How can you...say  
e|------------------|
B|------------10----|
G|-2---2------11----|
D|-4---5------12----|
A|-0---0------12----|
D|-0---0-------0----|





Comments


Popular Yellowcard tabs & chords
Fighting Chords
Promises Chords
Shadows And Regrets 2 Chords
Bombers Tabs
Cigarette 1 Tabs
Something Of Value 2 Tabs
When Were Old Men Tabs
Words Hands Hearts Tabs
Be The Young Ukulele
Powder Ukulele


Song lyrics



↑ Back to top | Tablatures and chords are parodies/interpretations of the original songs. You may use it for private study, scholarship, research or language learning purposes only
© 2014 AZChords.com Contact us | Privacy policy | DMCA | Add/correct tabs | Request tabs | Top 50 tabs