>
 >
Breathig

Breathig Guitar Tabs

Yellowcard - Breathig chords, tabs, tablatures, lyrics

Guitar lessons | Add/correct | Request | Top 50 tabs Artists:  A B C D E F G H I J K L M N O P Q R S T U V W X Y Z 0-9

Breathig Guitar Tabs – Yellowcard

CD, Sheet music, Poster

Do you like Breathig? Share with your friends now
Tabs
This is about 99% correct. Only part I'm worried about is the little solo but
I've watched several videos and I think this is it, other than that it's 100%.


Gtr 1 - Ryan Key
Gtr 2 - Ben

Intro Gtr1
e-----------------------------------------|
B-----------------------------------------|
G------555------------------555-----------|
D--222-555-444-55555-44-222-555-444-5555--|
A--222-333-444-55555-44-222-335-444-5555--|
E--222-----444-55555-44-222-----444-5555--|
   ... ... ... ..... .. ... ... ... ....

Intro(2x) Gtr 1/2
e-----------------------------------------|
B-----------------------------------------|
G------555------------------555-----------|
D--222-555-444-55555-44-222-555-444-5555--|
A--222-333-444-55555-44-222-335-444-5555--|
E--222-----444-55555-44-222-----444-5555--|

Solo Gtr 2
e----------------------------------------------------|
B----------------------------------------------------|
G----------------------------------------------------|
D--------------------------5h7-5--5\4----------------|
A---5/7--7\5--5/7--7---5h7------------5--5/7--7-5-7--|
E----------------------------------------------------|

Verse 1 Gtr 2
e--------------------------------------------|
B--------------------------------------------|
G--------------------------------------------|
D------5--5----------------------------------|
A--3-3-3--3-----0--0-----2--2-2----5-----5---|
E-----------0-0-0--0-2-2-2--2-2222-5-5-5-5---|
   . .      . .      . .       ...   . .      
Verse 1 Gtr 2
e--------------------------------------------|
B--------------------------------------------|
G--------------------------------------------|
D------5--5-----4--4-----2--2-2-----5-----5--|
A--3-3-3--3-2-2-2--2-0-0-0--0-0000--3-3-3-3--|
E--------------------------------------------|
   . .      . .      ..        ...    . . 
Verse 1 Gtr 2
e-----------------------------------------------------------------------|
B-----------------------------------------------------------------------|
G-----------------------------------------------------------------------|
D------5---------5------------------------------------------------------|
A--3-3-3-3--3--3-3-3------0-------0--------2-------2---2-----5----------|
E---------------------0-0-0-0-0-0-0-0--2-2-2-2-2-2-2-2-2-2-2-5-5-5-5-5--| 
   . .   .  .  .   .  . .   . . .   .  . .   . . .   .   . .   . .   . 
Verse 1 Gtr 2
e------------------------------------------------------|
B------------------------------------------------------|
G------------------------------------------------------|
D------5-------5---------------------------------------|
A--3-3-3-3-3-3-3-3------0-------0----2-----2-----2--2--|
E-------------------0-0-0-0-0-0-0-0--2-2-2-2-2-2-2--2--|
   . .   . . .   .  . .   . . .   .    . .   . .    
Chorus 1(2x) Gtr 1/2
e-----------------------------------------------------------|
B-----------------------------------------------------------|
G--5--5--5-5-5--5--5--5-5-5-5-------------------------------|
D--5--5--5-5-5--5--5--5-5-5-5---0--0--0-0-0--0--0--0-0-0-0--|
A--3--3--3-3-3--3--3--3-3-3-3---0--0--0-0-0--0--0--0-0-0-0--|
E-------------------------------0--0--0-0-0--0--0--0-0-0-0--|
                
e-----------------------------------|
B-----------------------------------|
G-----------------------------------|
D--5-5--5-5-5--4-4---5-5--5-5-5--4-4|
A--2-2--2-2-2--0-0---2-2--2-2-2--0-0|
E--2-2--2-2-2--0-0---2-2--2-2-2--0-0|

Solo Gtr 2
e----------------------------------------------------|
B----------------------------------------------------|
G----------------------------------------------------|
D--------------------------5h7-5--5\4----------------|
A---5/7--7\5--5/7--7---5h7------------5--5/7--7-5-7--|
E----------------------------------------------------|

Verse 2 Gtr 2
e--------------------------------------------|
B--------------------------------------------|
G--------------------------------------------|
D------5--5----------------------------------|
A--3-3-3--3-----0--0-----2--2-2----5-----5---|
E-----------0-0-0--0-2-2-2--2-2222-5-5-5-5---|
   . .      . .      . .       ...   . .    
e--------------------------------------------|
B--------------------------------------------|
G--------------------------------------------|
D------5--5-----4--4-----2--2-2-----5-----5--|
A--3-3-3--3-2-2-2--2-0-0-0--0-0000--3-3-3-3--|
E--------------------------------------------|
   . .      . .      . .       ...    . . 
Verse 2 Gtr 1/2
e---------------------------------------------------------------------|
B---------------------------------------------------------------------|
G---------------------------------------------------------------------|
D--5-5-5-5-5-5-5-5----------------------------------------------------|
A--3-3-3-3-3-3-3-3--0-0-0-0-0-0-0-0--2-2-2-2-2-2-2-2-2-2-----5-----5--|
E-------------------0-0-0-0-0-0-0-0--2-2-2-2-2-2-2-2-2-2-2-5-5-5-5-5--| 
                                                         . .   . . 
Verse 2 Gtr 1/2
e------------------------------------------------------|
B------------------------------------------------------|
G------------------------------------------------------|
D--5-5-5-5-5-5-5-5-------------------------------------|
A--3-3-3-3-3-3-3-3--0-0-0-0-0-0-0-0--2-----2-----2--2--|
E-------------------0-0-0-0-0-0-0-0--2-2-2-2-2-2-2--2--|
                                       . .   . .
Chorus 1(2x) Gtr 1/2
e-----------------------------------------------------------|
B-----------------------------------------------------------|
G--5--5--5-5-5--5--5--5-5-5-5-------------------------------|
D--5--5--5-5-5--5--5--5-5-5-5---0--0--0-0-0--0--0--0-0-0-0--|
A--3--3--3-3-3--3--3--3-3-3-3---0--0--0-0-0--0--0--0-0-0-0--|
E-------------------------------0--0--0-0-0--0--0--0-0-0-0--|

e-----------------------------------|
B-----------------------------------|
G-----------------------------------|
D--5-5--5-5-5--4-4---5-5--5-5-5--4-4|
A--2-2--2-2-2--0-0---2-2--2-2-2--0-0|
E--2-2--2-2-2--0-0---2-2--2-2-2--0-0|

Chorus 2 Gtr 1                                        
e----------------------------------------------------|
B----------------------------------------------------|
G----------------------------------------------------|
D--5-5-5-5-5-5-5-5-5-5-5-5--7-7-7-7-7-7-7-7-7-7-7-7--|
A--3-3-3-3-3-3-3-3-3-3-3-3--5-5-5-5-5-5-5-5-5-5-5-5--|
E----------------------------------------------------|

e--------------------------------------------------|
B--------------------------------------------------|
G--------------------------------------------------|
D--------------------------------------------------|
A--2-2-2-2-2-2-2-2-2-2-2-2--5-5-5-5-5-5-5-5-5-5-5-5|
E--2-2-2-2-2-2-2-2-2-2-2-2--5-5-5-5-5-5-5-5-5-5-5-5|

e----------------------------------------------------|
B----------------------------------------------------|
G----------------------------------------------------|
D--5-5-5-5-5-5-5-5-5-5-5-5--7-7-7-7-7-7-7-7-7-7-7-7--|
A--3-3-3-3-3-3-3-3-3-3-3-3--5-5-5-5-5-5-5-5-5-5-5-5--|
E----------------------------------------------------|

Chorus 2 Gtr 2
e----------------------------------------------------|
B----------------------------------------------------|
G--5-5-5-5-5-5-5-5-5-5-5-5--7-7-7-7-7-7-7-7-7-7-7-7--|
D--x-x-x-x-x-x-x-x-x-x-x-x--x-x-x-x-x-x-x-x-x-x-x-x--|
A--3-3-3-3-3-3-3-3-3-3-3-3--5-5-5-5-5-5-5-5-5-5-5-5--|
E----------------------------------------------------|

e----------------------------------------------------|
B----------------------------------------------------|
G--9-9-9-9-9-9-9-9-9-9-9-9--12-12-12-12-12-12-12-12--|
D--x-x-x-x-x-x-x-x-x-x-x-x--x--x--x--x--x--x--x--x---|
A--7-7-7-7-7-7-7-7-7-7-7-7--10-10-10-10-10-10-10-10--|
E----------------------------------------------------|

e----------------------------------------------------|
B----------------------------------------------------|
G--5-5-5-5-5-5-5-5-5-5-5-5--7-7-7-7-7-7-7-7-7-7-7-7--|
D--x-x-x-x-x-x-x-x-x-x-x-x--x-x-x-x-x-x-x-x-x-x-x-x--|
A--3-3-3-3-3-3-3-3-3-3-3-3--5-5-5-5-5-5-5-5-5-5-5-5--|
E----------------------------------------------------|

Chorus 2 Gtr 1/2
e----------------------------------------|
B----------------------------------------|
G----------------------------------------|
D--5-5--5-5-5--4-4---5-5--5-5-5--4-4--2--|
A--2-2--2-2-2--0-0---2-2--2-2-2--0-0--2--|
E--2-2--2-2-2--0-0---2-2--2-2-2--0-0--2--|

Interlude (Clean 2x) Gtr 1
e-----------------------------------------------------|
B-----------------------------------------------------|
G--/9--9---9---9--9-9-7-7-7/9--9---9---9--9-9-7-7-7/--|
D---x--x---x---x--x-x-x-x-x-x--x---x---x--x-x-x-x-x---|
A--/7--7---7---7--7-7-5-5-5/9--7---7---7--7-7-5-5-5/--|
E-----------------------------------------------------|

Gtr 1/2
e-----------------------------------------|
B-----------------------------------------|
G------555------------------555-----------|
D--222-555-444-55555-44-222-555-444-5555--|
A--222-333-444-55555-44-222-335-444-5555--|
E--222-----444-55555-44-222-----444-5555--|

Verse 3 Gtr 2
e----------------------------------------------------|
B-----5-5---5-5-7---7-7---7-7-7---8-8-8--8--8--12-12\|
G-----0-0---0-0-0---0-0---0-0-0---0-0-0--0--0--0-----|
D-----x-x---x-x-x---x-x---x-x-x---x-x-x--x--x--x-----|
A--3--3-3---3-3-5---5-5---5-5-5---7-7-7--7--7--10----|
E----------------------------------------------------|

e-------------------------------------------|
B--5-5---5-5-3---3-3---3-3-3---1-1-1--1--1--|
G--0-0---0-0-0---0-0---0-0-0---0-0-0--0--0--|
D--x-x---x-x-x---x-x---x-x-x---x-x-x--x--x--|
A--3-3---3-3-2---2-2---2-2-2---2-2-2--2--2--|
E-------------------------------------------|

e----------------------------------------------------|
B-----5-5---5-5-7---7-7---7-7-7---8-8-8--8--8--12-12\|
G-----0-0---0-0-0---0-0---0-0-0---0-0-0--0--0--0-----|
D-----x-x---x-x-x---x-x---x-x-x---x-x-x--x--x--x-----|
A--3--3-3---3-3-5---5-5---5-5-5---7-7-7--7--7--10----|
E----------------------------------------------------|

e---------------------------------|
B--5-5---5-5-5---7-7---7-7-7---8--|
G--0-0---0-0-0---0-0---0-0-0---0--|
D--x-x---x-x-x---x-x---x-x-x---x--|
A--3-3---3-3-3---5-5---5-5-5---7--|
E---------------------------------|

Chorus 1(2x) Gtr 1/2
e-----------------------------------------------------------|
B-----------------------------------------------------------|
G--5--5--5-5-5--5--5--5-5-5-5-------------------------------|
D--5--5--5-5-5--5--5--5-5-5-5---0--0--0-0-0--0--0--0-0-0-0--|
A--3--3--3-3-3--3--3--3-3-3-3---0--0--0-0-0--0--0--0-0-0-0--|
E-------------------------------0--0--0-0-0--0--0--0-0-0-0--|

e-----------------------------------|
B-----------------------------------|
G-----------------------------------|
D--5-5--5-5-5--4-4---5-5--5-5-5--4-4|
A--2-2--2-2-2--0-0---2-2--2-2-2--0-0|
E--2-2--2-2-2--0-0---2-2--2-2-2--0-0|

Chorus 2 Gtr 1                                        
e----------------------------------------------------|
B----------------------------------------------------|
G----------------------------------------------------|
D--5-5-5-5-5-5-5-5-5-5-5-5--7-7-7-7-7-7-7-7-7-7-7-7--|
A--3-3-3-3-3-3-3-3-3-3-3-3--5-5-5-5-5-5-5-5-5-5-5-5--|
E----------------------------------------------------|

e--------------------------------------------------|
B--------------------------------------------------|
G--------------------------------------------------|
D--------------------------------------------------|
A--2-2-2-2-2-2-2-2-2-2-2-2--5-5-5-5-5-5-5-5-5-5-5-5|
E--2-2-2-2-2-2-2-2-2-2-2-2--5-5-5-5-5-5-5-5-5-5-5-5|

e-------------------------------------------------------------|
B-------------------------------------------------------------|
G-------------------------------------------------------------|
D--5-5-5-5-5-5-5-5-5-5-5-5--7-7-7-7-7-7-7-7-7-7-7-7-----------|
A--3-3-3-3-3-3-3-3-3-3-3-3--5-5-5-5-5-5-5-5-5-5-5-5--0-0-0-0--|
E----------------------------------------------------0-0-0-0--|
                                                     . . . .

Chorus 2 Gtr 2
e----------------------------------------------------|
B----------------------------------------------------|
G--5-5-5-5-5-5-5-5-5-5-5-5--7-7-7-7-7-7-7-7-7-7-7-7--|
D--x-x-x-x-x-x-x-x-x-x-x-x--x-x-x-x-x-x-x-x-x-x-x-x--|
A--3-3-3-3-3-3-3-3-3-3-3-3--5-5-5-5-5-5-5-5-5-5-5-5--|
E----------------------------------------------------|

e----------------------------------------------------|
B----------------------------------------------------|
G--9-9-9-9-9-9-9-9-9-9-9-9--12-12-12-12-12-12-12-12--|
D--x-x-x-x-x-x-x-x-x-x-x-x--x--x--x--x--x--x--x--x---|
A--7-7-7-7-7-7-7-7-7-7-7-7--10-10-10-10-10-10-10-10--|
E----------------------------------------------------|

e-------------------------------------------------------------|
B-------------------------------------------------------------|
G--5-5-5-5-5-5-5-5-5-5-5-5--7-7-7-7-7-7-7-7-7-7-7-7-----------|
D--x-x-x-x-x-x-x-x-x-x-x-x--x-x-x-x-x-x-x-x-x-x-x-x-----------|
A--3-3-3-3-3-3-3-3-3-3-3-3--5-5-5-5-5-5-5-5-5-5-5-5--0-0-0-0--|
E----------------------------------------------------0-0-0-0--|
                                                     . . . .
Outro Gtr 1/2
e------------------------------------------|
B------------------------------------------|
G------555------------------555------------|
D--222-555-444-55555-44-222-555-444-555-5--|
A--222-333-444-55555-44-222-335-444-555-5--|
E--222-----444-55555-44-222-----444-555-5--|





Comments


Popular Yellowcard tabs & chords
Awakening Bass Tabs
Back Home 3 Chords
Light Up The Sky Chords
Hide Tabs
Light Up The Sky Tabs
Paper Walls 2 Tabs
With You Around Tabs
Everywhere Ukulele
Martin Sheen Or Jfk Ukulele
Three Flights Down Ukulele


Song lyrics



↑ Back to top | Tablatures and chords are parodies/interpretations of the original songs. You may use it for private study, scholarship, research or language learning purposes only
© 2014 AZChords.com Contact us | Privacy policy | DMCA | Add/correct tabs | Request tabs | Top 50 tabs