>
 >
Back Home Intro

Back Home Intro Guitar Tabs

Yellowcard - Back Home Intro chords, tabs, tablatures, lyrics

Guitar lessons | Add/correct | Request | Top 50 tabs Artists:  A B C D E F G H I J K L M N O P Q R S T U V W X Y Z 0-9

Back Home Intro Guitar Tabs – Yellowcard

CD, Sheet music, Poster

Do you like Back Home Intro? Share with your friends now
Tabs
------------------------
 Back Home ~ Yellowcard
------------------------

(I know, pretty lame name)

Tuning: Drop D

Tempo: 90

Key: D

Timing: 4/4

Dynamic: f

Note: Let Ring Throughout




  Guitar 1
E|--------------------------0-0-0-|------------------------------------------------|
B|--------3---3-3-----3-----2-2-2-|------------------------------------------------|
G|--------4---4-4-----4---0-2-2-2-|-----------14----14-14--X--X-12-12--X-11--------|
D|--------4---4-4-----4---0-2-2-2-|0-----------X-----X--X--X--X--X--X--X--X-----X--|
A|2-------2---2-2-----2-----0-0-0-|0----------12----12-12--X--X-10-10--X--9-----X--|
D|--------------------------------|0-----------0-----0--0--0--0--0--0--0--0-----X--|
  1 e + a 2 e + a 3 e + a 4 e + a  1  e  +  a  2  e  +  a  3  e  +  a  4  e  +  a  

  Guitar 1
E|--------------------------------|--------------------------------|
B|--------------------------------|--------------------------------|
G|--------7---7-7-----7---X-------|7-------7---7-7-----7-----------|
D|--------7---7-7-----7---X-------|7-------7-----7-----7-----------|
A|5-------5-----5-----5-----0-0-0-|5-------5-----5-----5-------0-0-|
D|5-------5-----5-----5-----0-----|5-------5-----5-----5-----0-----|
  1 e + a 2 e + a 3 e + a 4 e + a  1 e + a 2 e + a 3 e + a 4 e + a



  Guitar 1
E|--------------------------0-0-0-|------------------------------------------------|
B|--------3---3-3-----3-----2-2-2-|------------------------------------------------|
G|--------4---4-4-----4---0-2-2-2-|-----------14----14-14-------12-12----11--------|
D|--------4---4-4-----4---0-2-2-2-|0-----------X-----X--X--------X--X-----X-----X--|
A|2-------2---2-2-----2-----0-0-0-|0----------12----12-12-------10-10-----9-----X--|
D|--------------------------------|0-----------0-----0--0--------0--0-----0-----X--|
 |1 e + a 2 e + a 3 e + a 4 e + a  1  e  +  a  2  e  +  a  3  e  +  a  4  e  +  a  |
 |                                                                                 |
 |Guitar 2                                                                         |
E|--------------------------------|------------------------------------------------|
B|--------------------------------|------------------------------------------------|
G|7-------7-----7---7-7-----6-6-6-|-----------11----11-11--------9--9-----7-----X--|
D|X-------X-----X---X-X-----X-X-X-|------------X-----X--X--------X--X-----X-----X--|
A|5-------5-----5---5-5-----4-4-4-|0-----------9-----9--9--------7--7-----5-----X--|
D|--------------------------------|0-----------------------------------------------|
  1 e + a 2 e + a 3 e + a 4 e + a  1  e  +  a  2  e  +  a  3  e  +  a  4  e  +  a 


  Guitar 1
E|--------------------------------|--------------------------------|
B|--------------------------------|--------------------------------|
G|--------7---7-7-----7-----------|--------------------------------|
D|--------7---7-7-----7-----------|5-----4-----0-------------------|
A|5-------5---5-5-----7-----0-----|5-----5-----0-------------------|
D|5-------5---5-5-----5-----0-0-0-|5-----4-----0-------------------|
 |1 e + a 2 e + a 3 e + a 4 e + a  1 e + a 2 e + a 3 e + a 4 e + a |
 |                                                                 |
 |Guitar 2                                                         |
E|--------------------------------|--------------------------------|
B|--------------------------------|--------------------------------|
G|--------------------------------|--------------------------------|
D|5-------5-----5-----5-----------|------------7-------------------|
A|5-------5-----5-----5-----0-----|5-----5-----5-------------------|
D|5-------5-----5-----5-----0-0-0-|5-----4-----0-------------------|
  1 e + a 2 e + a 3 e + a 4 e + a  1 e + a 2 e + a 3 e + a 4 e + a | 




That's it.
Pretty sick lick.
Enjoy!





Comments


Popular Yellowcard tabs & chords
Light Up The Sky Bass Tabs
Ocean Avenue Bass Tabs
Only One 1 Chords
For You And Your Denial 1 Tabs
Miles Apart Intro Tabs
Rough Landing Holly 2 Tabs
Be The Young Ukulele
Ocean Avenue Ukulele
Space Travel Ukulele
Way Away Ukulele


Song lyrics



↑ Back to top | Tablatures and chords are parodies/interpretations of the original songs. You may use it for private study, scholarship, research or language learning purposes only
© 2014 AZChords.com Contact us | Privacy policy | DMCA | Add/correct tabs | Request tabs | Top 50 tabs